  0
SECTION
  2
HEADER
  9
$ACADVER
  1
AC1027
  9
$ACADMAINTVER
 70
     7
  9
$DWGCODEPAGE
  3
ANSI_1252
  9
$TITLE
  1
RoboBrrd 3D Printed Replacement Parts v1
  9
$AUTHOR
  1
RobotGrrl
  9
$CUSTOMPROPERTYTAG
  1
Manager
  9
$CUSTOMPROPERTY
  1

  9
$CUSTOMPROPERTYTAG
  1
Company
  9
$CUSTOMPROPERTY
  1
RoboBrrd.com
  9
$CUSTOMPROPERTYTAG
  1
Category
  9
$CUSTOMPROPERTY
  1

  9
$CUSTOMPROPERTYTAG
  1
Part Number
  9
$CUSTOMPROPERTY
  1
RoboBrrd Dimensions
  9
$CUSTOMPROPERTYTAG
  1
Description
  9
$CUSTOMPROPERTY
  1

  9
$CUSTOMPROPERTYTAG
  1
Project
  9
$CUSTOMPROPERTY
  1

  9
$CUSTOMPROPERTYTAG
  1
Designer
  9
$CUSTOMPROPERTY
  1
RobotGrrl
  9
$CUSTOMPROPERTYTAG
  1
Engineer
  9
$CUSTOMPROPERTY
  1

  9
$CUSTOMPROPERTYTAG
  1
Authority
  9
$CUSTOMPROPERTY
  1

  9
$CUSTOMPROPERTYTAG
  1
Cost Center
  9
$CUSTOMPROPERTY
  1

  9
$CUSTOMPROPERTYTAG
  1
Vendor
  9
$CUSTOMPROPERTY
  1

  9
$CUSTOMPROPERTYTAG
  1
User Status
  9
$CUSTOMPROPERTY
  1

  9
$CUSTOMPROPERTYTAG
  1
Design Status
  9
$CUSTOMPROPERTY
  1
WorkInProgress
  9
$CUSTOMPROPERTYTAG
  1
Checked by
  9
$CUSTOMPROPERTY
  1

  9
$CUSTOMPROPERTYTAG
  1
Engr Approved by
  9
$CUSTOMPROPERTY
  1

  9
$CUSTOMPROPERTYTAG
  1
Mfg Approved by
  9
$CUSTOMPROPERTY
  1

  9
$REQUIREDVERSIONS
160
                 0
  9
$INSBASE
 10
0.0
 20
0.0
 30
0.0
  9
$EXTMIN
 10
0.0
 20
0.0
 30
0.0
  9
$EXTMAX
 10
558.8
 20
431.7999999999999
 30
0.0
  9
$LIMMIN
 10
0.0
 20
0.0
  9
$LIMMAX
 10
558.8
 20
431.7999999999999
  9
$ORTHOMODE
 70
     0
  9
$REGENMODE
 70
     1
  9
$FILLMODE
 70
     1
  9
$QTEXTMODE
 70
     0
  9
$MIRRTEXT
 70
     0
  9
$LTSCALE
 40
1.0
  9
$ATTMODE
 70
     1
  9
$TEXTSIZE
 40
0.2
  9
$TRACEWID
 40
0.05
  9
$TEXTSTYLE
  7
Standard
  9
$CLAYER
  8
0
  9
$CELTYPE
  6
ByLayer
  9
$CECOLOR
 62
   256
  9
$CELTSCALE
 40
1.0
  9
$DISPSILH
 70
     0
  9
$DIMSCALE
 40
1.0
  9
$DIMASZ
 40
1.799999999999999
  9
$DIMEXO
 40
0.0625
  9
$DIMDLI
 40
0.38
  9
$DIMRND
 40
0.0
  9
$DIMDLE
 40
0.0
  9
$DIMEXE
 40
0.18
  9
$DIMTP
 40
0.0
  9
$DIMTM
 40
0.0
  9
$DIMTXT
 40
0.3048000037670135
  9
$DIMCEN
 40
0.09
  9
$DIMTSZ
 40
0.0
  9
$DIMTOL
 70
     0
  9
$DIMLIM
 70
     0
  9
$DIMTIH
 70
     1
  9
$DIMTOH
 70
     1
  9
$DIMSE1
 70
     0
  9
$DIMSE2
 70
     0
  9
$DIMTAD
 70
     0
  9
$DIMZIN
 70
     0
  9
$DIMBLK
  1

  9
$DIMASO
 70
     1
  9
$DIMSHO
 70
     1
  9
$DIMPOST
  1

  9
$DIMAPOST
  1

  9
$DIMALT
 70
     0
  9
$DIMALTD
 70
     2
  9
$DIMALTF
 40
25.4
  9
$DIMLFAC
 40
1.0
  9
$DIMTOFL
 70
     0
  9
$DIMTVP
 40
0.0
  9
$DIMTIX
 70
     0
  9
$DIMSOXD
 70
     0
  9
$DIMSAH
 70
     0
  9
$DIMBLK1
  1

  9
$DIMBLK2
  1

  9
$DIMSTYLE
  2
Standard
  9
$DIMCLRD
 70
     0
  9
$DIMCLRE
 70
     0
  9
$DIMCLRT
 70
     0
  9
$DIMTFAC
 40
1.0
  9
$DIMGAP
 40
0.09
  9
$DIMJUST
 70
     0
  9
$DIMSD1
 70
     0
  9
$DIMSD2
 70
     0
  9
$DIMTOLJ
 70
     1
  9
$DIMTZIN
 70
     0
  9
$DIMALTZ
 70
     0
  9
$DIMALTTZ
 70
     0
  9
$DIMUPT
 70
     0
  9
$DIMDEC
 70
     4
  9
$DIMTDEC
 70
     4
  9
$DIMALTU
 70
     2
  9
$DIMALTTD
 70
     2
  9
$DIMTXSTY
  7
Standard
  9
$DIMAUNIT
 70
     0
  9
$DIMADEC
 70
     0
  9
$DIMALTRND
 40
0.0
  9
$DIMAZIN
 70
     0
  9
$DIMDSEP
 70
    46
  9
$DIMATFIT
 70
     3
  9
$DIMFRAC
 70
     0
  9
$DIMLDRBLK
  1

  9
$DIMLUNIT
 70
     2
  9
$DIMLWD
 70
    -2
  9
$DIMLWE
 70
    -2
  9
$DIMTMOVE
 70
     0
  9
$DIMFXL
 40
1.0
  9
$DIMFXLON
 70
     0
  9
$DIMJOGANG
 40
0.7853981633974483
  9
$DIMTFILL
 70
     0
  9
$DIMTFILLCLR
 70
     0
  9
$DIMARCSYM
 70
     0
  9
$DIMLTYPE
  6

  9
$DIMLTEX1
  6

  9
$DIMLTEX2
  6

  9
$DIMTXTDIRECTION
 70
     0
  9
$LUNITS
 70
     2
  9
$LUPREC
 70
     4
  9
$SKETCHINC
 40
0.1
  9
$FILLETRAD
 40
0.0
  9
$AUNITS
 70
     0
  9
$AUPREC
 70
     0
  9
$MENU
  1
.
  9
$ELEVATION
 40
0.0
  9
$PELEVATION
 40
0.0
  9
$THICKNESS
 40
0.0
  9
$LIMCHECK
 70
     0
  9
$CHAMFERA
 40
0.0
  9
$CHAMFERB
 40
0.0
  9
$CHAMFERC
 40
0.0
  9
$CHAMFERD
 40
0.0
  9
$SKPOLY
 70
     0
  9
$TDCREATE
 40
2456353.451376389
  9
$TDUCREATE
 40
2456353.784709722
  9
$TDUPDATE
 40
2456353.451376389
  9
$TDUUPDATE
 40
2456353.784709722
  9
$TDINDWG
 40
0.0000305324
  9
$TDUSRTIMER
 40
0.0000305324
  9
$USRTIMER
 70
     1
  9
$ANGBASE
 50
0.0
  9
$ANGDIR
 70
     0
  9
$PDMODE
 70
     0
  9
$PDSIZE
 40
0.0
  9
$PLINEWID
 40
0.0
  9
$SPLFRAME
 70
     0
  9
$SPLINETYPE
 70
     6
  9
$SPLINESEGS
 70
     8
  9
$HANDSEED
  5
3D8
  9
$SURFTAB1
 70
     6
  9
$SURFTAB2
 70
     6
  9
$SURFTYPE
 70
     6
  9
$SURFU
 70
     6
  9
$SURFV
 70
     6
  9
$UCSBASE
  2

  9
$UCSNAME
  2

  9
$UCSORG
 10
0.0
 20
0.0
 30
0.0
  9
$UCSXDIR
 10
1.0
 20
0.0
 30
0.0
  9
$UCSYDIR
 10
0.0
 20
1.0
 30
0.0
  9
$UCSORTHOREF
  2

  9
$UCSORTHOVIEW
 70
     0
  9
$UCSORGTOP
 10
0.0
 20
0.0
 30
0.0
  9
$UCSORGBOTTOM
 10
0.0
 20
0.0
 30
0.0
  9
$UCSORGLEFT
 10
0.0
 20
0.0
 30
0.0
  9
$UCSORGRIGHT
 10
0.0
 20
0.0
 30
0.0
  9
$UCSORGFRONT
 10
0.0
 20
0.0
 30
0.0
  9
$UCSORGBACK
 10
0.0
 20
0.0
 30
0.0
  9
$PUCSBASE
  2

  9
$PUCSNAME
  2

  9
$PUCSORG
 10
0.0
 20
0.0
 30
0.0
  9
$PUCSXDIR
 10
1.0
 20
0.0
 30
0.0
  9
$PUCSYDIR
 10
0.0
 20
1.0
 30
0.0
  9
$PUCSORTHOREF
  2

  9
$PUCSORTHOVIEW
 70
     0
  9
$PUCSORGTOP
 10
0.0
 20
0.0
 30
0.0
  9
$PUCSORGBOTTOM
 10
0.0
 20
0.0
 30
0.0
  9
$PUCSORGLEFT
 10
0.0
 20
0.0
 30
0.0
  9
$PUCSORGRIGHT
 10
0.0
 20
0.0
 30
0.0
  9
$PUCSORGFRONT
 10
0.0
 20
0.0
 30
0.0
  9
$PUCSORGBACK
 10
0.0
 20
0.0
 30
0.0
  9
$USERI1
 70
     0
  9
$USERI2
 70
     0
  9
$USERI3
 70
     0
  9
$USERI4
 70
     0
  9
$USERI5
 70
     0
  9
$USERR1
 40
0.0
  9
$USERR2
 40
0.0
  9
$USERR3
 40
0.0
  9
$USERR4
 40
0.0
  9
$USERR5
 40
0.0
  9
$WORLDVIEW
 70
     1
  9
$SHADEDGE
 70
     3
  9
$SHADEDIF
 70
    70
  9
$TILEMODE
 70
     1
  9
$MAXACTVP
 70
    64
  9
$PINSBASE
 10
0.0
 20
0.0
 30
0.0
  9
$PLIMCHECK
 70
     0
  9
$PEXTMIN
 10
0.0
 20
0.0
 30
0.0
  9
$PEXTMAX
 10
558.8
 20
431.7999999999999
 30
0.0
  9
$PLIMMIN
 10
0.0
 20
0.0
  9
$PLIMMAX
 10
558.8
 20
431.7999999999999
  9
$UNITMODE
 70
     0
  9
$VISRETAIN
 70
     1
  9
$PLINEGEN
 70
     0
  9
$PSLTSCALE
 70
     1
  9
$TREEDEPTH
 70
  3020
  9
$CMLSTYLE
  2
Standard
  9
$CMLJUST
 70
     0
  9
$CMLSCALE
 40
1.0
  9
$PROXYGRAPHICS
 70
     1
  9
$MEASUREMENT
 70
     1
  9
$CELWEIGHT
370
    -1
  9
$ENDCAPS
280
     0
  9
$JOINSTYLE
280
     0
  9
$LWDISPLAY
290
     0
  9
$INSUNITS
 70
     4
  9
$HYPERLINKBASE
  1

  9
$STYLESHEET
  1

  9
$XEDIT
290
     1
  9
$CEPSNTYPE
380
     0
  9
$PSTYLEMODE
290
     1
  9
$FINGERPRINTGUID
  2
{BFDC0D79-ED4F-4B30-B2D0-CFE38010A4E9}
  9
$VERSIONGUID
  2
{1D46EC2C-09B0-47C7-BEA3-25EE1EC5D39E}
  9
$EXTNAMES
290
     1
  9
$PSVPSCALE
 40
0.0
  9
$OLESTARTUP
290
     0
  9
$SORTENTS
280
   127
  9
$INDEXCTL
280
     0
  9
$HIDETEXT
280
     1
  9
$XCLIPFRAME
280
     2
  9
$HALOGAP
280
     0
  9
$OBSCOLOR
 70
   257
  9
$OBSLTYPE
280
     0
  9
$INTERSECTIONDISPLAY
280
     0
  9
$INTERSECTIONCOLOR
 70
   257
  9
$DIMASSOC
280
     1
  9
$PROJECTNAME
  1

  9
$CAMERADISPLAY
290
     0
  9
$LENSLENGTH
 40
50.0
  9
$CAMERAHEIGHT
 40
0.0
  9
$STEPSPERSEC
 40
2.0
  9
$STEPSIZE
 40
6.0
  9
$3DDWFPREC
 40
2.0
  9
$PSOLWIDTH
 40
0.25
  9
$PSOLHEIGHT
 40
4.0
  9
$LOFTANG1
 40
1.570796326794896
  9
$LOFTANG2
 40
1.570796326794896
  9
$LOFTMAG1
 40
0.0
  9
$LOFTMAG2
 40
0.0
  9
$LOFTPARAM
 70
     7
  9
$LOFTNORMALS
280
     1
  9
$LATITUDE
 40
37.795
  9
$LONGITUDE
 40
-122.394
  9
$NORTHDIRECTION
 40
0.0
  9
$TIMEZONE
 70
 -8000
  9
$LIGHTGLYPHDISPLAY
280
     1
  9
$TILEMODELIGHTSYNCH
280
     1
  9
$CMATERIAL
347
11
  9
$SOLIDHIST
280
     0
  9
$SHOWHIST
280
     1
  9
$DWFFRAME
280
     2
  9
$DGNFRAME
280
     0
  9
$REALWORLDSCALE
290
     1
  9
$INTERFERECOLOR
 62
     1
  9
$INTERFEREOBJVS
345
33
  9
$INTERFEREVPVS
346
30
  9
$CSHADOW
280
     0
  9
$SHADOWPLANELOCATION
 40
0.0
  0
ENDSEC
  0
SECTION
  2
CLASSES
  0
CLASS
  1
ACDBDICTIONARYWDFLT
  2
AcDbDictionaryWithDefault
  3
ObjectDBX Classes
 90
        0
 91
        1
280
     0
281
     0
  0
CLASS
  1
MATERIAL
  2
AcDbMaterial
  3
ObjectDBX Classes
 90
     1153
 91
        3
280
     0
281
     0
  0
CLASS
  1
VISUALSTYLE
  2
AcDbVisualStyle
  3
ObjectDBX Classes
 90
     4095
 91
       24
280
     0
281
     0
  0
CLASS
  1
SCALE
  2
AcDbScale
  3
ObjectDBX Classes
 90
     1153
 91
       17
280
     0
281
     0
  0
CLASS
  1
TABLESTYLE
  2
AcDbTableStyle
  3
ObjectDBX Classes
 90
     4095
 91
        1
280
     0
281
     0
  0
CLASS
  1
MLEADERSTYLE
  2
AcDbMLeaderStyle
  3
ACDB_MLEADERSTYLE_CLASS
 90
     4095
 91
        1
280
     0
281
     0
  0
CLASS
  1
ACDBSECTIONVIEWSTYLE
  2
AcDbSectionViewStyle
  3
ObjectDBX Classes
 90
     1025
 91
        1
280
     0
281
     0
  0
CLASS
  1
ACDBDETAILVIEWSTYLE
  2
AcDbDetailViewStyle
  3
ObjectDBX Classes
 90
     1025
 91
        1
280
     0
281
     0
  0
CLASS
  1
DICTIONARYVAR
  2
AcDbDictionaryVar
  3
ObjectDBX Classes
 90
        0
 91
        5
280
     0
281
     0
  0
CLASS
  1
CELLSTYLEMAP
  2
AcDbCellStyleMap
  3
ObjectDBX Classes
 90
     1152
 91
        1
280
     0
281
     0
  0
ENDSEC
  0
SECTION
  2
TABLES
  0
TABLE
  2
VPORT
  5
8
330
0
100
AcDbSymbolTable
 70
     1
  0
VPORT
  5
57
330
8
100
AcDbSymbolTableRecord
100
AcDbViewportTableRecord
  2
*Active
 70
     0
 10
0.0
 20
0.0
 11
1.0
 21
1.0
 12
279.4
 22
215.9
 13
0.0
 23
0.0
 14
1.0
 24
1.0
 15
0.0
 25
0.0
 16
0.0
 26
0.0
 36
1.0
 17
0.0
 27
0.0
 37
0.0
 40
431.7999999999999
 41
1.294117647058823
 42
50.0
 43
0.0
 44
0.0
 50
0.0
 51
0.0
 71
     0
 72
   100
 73
     1
 74
     1
 75
     0
 76
     0
 77
     0
 78
     0
281
     0
 65
     1
110
0.0
120
0.0
130
0.0
111
1.0
121
0.0
131
0.0
112
0.0
122
1.0
132
0.0
 79
     0
146
0.0
 60
     3
 61
     5
292
     1
282
     1
141
0.0
142
0.0
 63
   250
421
  3355443
  0
ENDTAB
  0
TABLE
  2
LTYPE
  5
5
330
0
100
AcDbSymbolTable
 70
    59
  0
LTYPE
  5
5B
330
5
100
AcDbSymbolTableRecord
100
AcDbLinetypeTableRecord
  2
ByBlock
 70
     0
  3

 72
    65
 73
     0
 40
0.0
  0
LTYPE
  5
5C
330
5
100
AcDbSymbolTableRecord
100
AcDbLinetypeTableRecord
  2
ByLayer
 70
     0
  3

 72
    65
 73
     0
 40
0.0
  0
LTYPE
  5
5D
330
5
100
AcDbSymbolTableRecord
100
AcDbLinetypeTableRecord
  2
Continuous
 70
     0
  3
Solid line
 72
    65
 73
     0
 40
0.0
  0
LTYPE
  5
69
330
5
100
AcDbSymbolTableRecord
100
AcDbLinetypeTableRecord
  2
PHANTOM2
 70
     0
  3
Phantom (.5x) ___ _ _ ___ _ _ ___ _ _ ___ _ _
 72
    65
 73
     6
 40
1.25
 49
0.625
 74
     0
 49
-0.125
 74
     0
 49
0.125
 74
     0
 49
-0.125
 74
     0
 49
0.125
 74
     0
 49
-0.125
 74
     0
  0
LTYPE
  5
79
330
5
100
AcDbSymbolTableRecord
100
AcDbLinetypeTableRecord
  2
BY_STANDARD
 70
     0
  3
By Standard ____________    ____    ____   _
 72
    65
 73
     6
 40
1.240299999999999
 49
0.6614
 74
     0
 49
-0.0827
 74
     0
 49
0.1654
 74
     0
 49
-0.0827
 74
     0
 49
0.1654
 74
     0
 49
-0.0827
 74
     0
  0
LTYPE
  5
7A
330
5
100
AcDbSymbolTableRecord
100
AcDbLinetypeTableRecord
  2
CHAIN
 70
     0
  3
Chain ____ _ ____ _ ____ _ ____ _ ____ _ ____
 72
    65
 73
     4
 40
0.7087
 49
0.4724000000000001
 74
     0
 49
-0.0591
 74
     0
 49
0.1181
 74
     0
 49
-0.0591
 74
     0
  0
LTYPE
  5
7B
330
5
100
AcDbSymbolTableRecord
100
AcDbLinetypeTableRecord
  2
DASH_DOT
 70
     0
  3
Dash dot __ . __ . __ . __ . __ . __ . __ . __
 72
    65
 73
     4
 40
0.37
 49
0.24
 74
     0
 49
-0.06
 74
     0
 49
0.01
 74
     0
 49
-0.06
 74
     0
  0
LTYPE
  5
7C
330
5
100
AcDbSymbolTableRecord
100
AcDbLinetypeTableRecord
  2
DOUBLE_DASH_DOT
 70
     0
  3
Double-Dash Dot __ __ . __ __ . __ __ . __ _
 72
    65
 73
     6
 40
0.4398
 49
0.24
 74
     0
 49
-0.06
 74
     0
 49
0.0098
 74
     0
 49
-0.06
 74
     0
 49
0.01
 74
     0
 49
-0.06
 74
     0
  0
LTYPE
  5
7D
330
5
100
AcDbSymbolTableRecord
100
AcDbLinetypeTableRecord
  2
DASH_TRIPLE_DOT
 70
     0
  3
Dash Triple-Dot _ . . . _ . . . _ . . . _
 72
    65
 73
     8
 40
0.51
 49
0.24
 74
     0
 49
-0.06
 74
     0
 49
0.01
 74
     0
 49
-0.06
 74
     0
 49
0.01
 74
     0
 49
-0.06
 74
     0
 49
0.01
 74
     0
 49
-0.06
 74
     0
  0
LTYPE
  5
7E
330
5
100
AcDbSymbolTableRecord
100
AcDbLinetypeTableRecord
  2
DASHED
 70
     0
  3
Dashed __ __ __ __ __ __ __ __ __ __ __ __ __ _
 72
    65
 73
     2
 40
0.2067
 49
0.1654
 74
     0
 49
-0.0413
 74
     0
  0
LTYPE
  5
7F
330
5
100
AcDbSymbolTableRecord
100
AcDbLinetypeTableRecord
  2
DASH_DOUBLE_DOT
 70
     0
  3
Dash Double-Dot __ . . __ . . __ . . __ . .
 72
    65
 73
     6
 40
0.4398
 49
0.24
 74
     0
 49
-0.06
 74
     0
 49
0.0098
 74
     0
 49
-0.06
 74
     0
 49
0.01
 74
     0
 49
-0.06
 74
     0
  0
LTYPE
  5
80
330
5
100
AcDbSymbolTableRecord
100
AcDbLinetypeTableRecord
  2
DASHED_SPACE
 70
     0
  3
Dashed Space __ __ __ __ __ __ __ __ __ __ __ _
 72
    65
 73
     2
 40
0.2067
 49
0.1654
 74
     0
 49
-0.0413
 74
     0
  0
LTYPE
  5
81
330
5
100
AcDbSymbolTableRecord
100
AcDbLinetypeTableRecord
  2
DOTTED
 70
     0
  3
Dotted . . . . . . . . . . . . . . . . . . . . 
 72
    65
 73
     2
 40
0.0482
 49
0.0069
 74
     0
 49
-0.0413
 74
     0
  0
LTYPE
  5
82
330
5
100
AcDbSymbolTableRecord
100
AcDbLinetypeTableRecord
  2
DOUBLE_DASH_CHAIN
 70
     0
  3
Double-Dash Chain ______  __  __  ______  __  _
 72
    65
 73
     6
 40
1.240299999999999
 49
0.6614
 74
     0
 49
-0.0827
 74
     0
 49
0.1654
 74
     0
 49
-0.0827
 74
     0
 49
0.1654
 74
     0
 49
-0.0827
 74
     0
  0
LTYPE
  5
84
330
5
100
AcDbSymbolTableRecord
100
AcDbLinetypeTableRecord
  2
DOUBLE_DASH_DOUBLE_DOT
 70
     0
  3
Double-Dash Double-dot _ _ . . _ _ . . _
 72
    65
 73
     8
 40
0.7400000000000001
 49
0.24
 74
     0
 49
-0.06
 74
     0
 49
0.24
 74
     0
 49
-0.06
 74
     0
 49
0.01
 74
     0
 49
-0.06
 74
     0
 49
0.01
 74
     0
 49
-0.06
 74
     0
  0
LTYPE
  5
85
330
5
100
AcDbSymbolTableRecord
100
AcDbLinetypeTableRecord
  2
DOUBLE_DASH_TRIPLE_DOT
 70
     0
  3
Double Dash Triple Dot __ __ . . . __ __ . .
 72
    65
 73
    10
 40
0.8100000000000001
 49
0.24
 74
     0
 49
-0.06
 74
     0
 49
0.24
 74
     0
 49
-0.06
 74
     0
 49
0.01
 74
     0
 49
-0.06
 74
     0
 49
0.01
 74
     0
 49
-0.06
 74
     0
 49
0.01
 74
     0
 49
-0.06
 74
     0
  0
LTYPE
  5
86
330
5
100
AcDbSymbolTableRecord
100
AcDbLinetypeTableRecord
  2
LONG_DASH_DOTTED
 70
     0
  3
Long Dash Dotted ____ . ____ . ____ . ____ . _
 72
    65
 73
     4
 40
0.3543
 49
0.2362
 74
     0
 49
-0.0295
 74
     0
 49
0.0591
 74
     0
 49
-0.0295
 74
     0
  0
LTYPE
  5
87
330
5
100
AcDbSymbolTableRecord
100
AcDbLinetypeTableRecord
  2
LONG_DASH_DOUBLE_DOT
 70
     0
  3
Long Dash Double Dot ________  .  .  ________  
 72
    65
 73
     6
 40
0.6799999999999999
 49
0.48
 74
     0
 49
-0.06
 74
     0
 49
0.01
 74
     0
 49
-0.06
 74
     0
 49
0.01
 74
     0
 49
-0.06
 74
     0
  0
LTYPE
  5
88
330
5
100
AcDbSymbolTableRecord
100
AcDbLinetypeTableRecord
  2
LONG_DASH_TRIPLE_DOT
 70
     0
  3
Long Dash Triple Dot ____ ... ____ ... ____
 72
    65
 73
     8
 40
0.3689
 49
0.2362
 74
     0
 49
-0.0295
 74
     0
 49
0.0049
 74
     0
 49
-0.0295
 74
     0
 49
0.0049
 74
     0
 49
-0.0295
 74
     0
 49
0.0049
 74
     0
 49
-0.0295
 74
     0
  0
LTYPE
  5
89
330
5
100
AcDbSymbolTableRecord
100
AcDbLinetypeTableRecord
  2
BORDER
 70
     0
  3
Border __ __ . __ __ . __ __ . __ __ . __ __ .
 72
    65
 73
     6
 40
1.75
 49
0.5
 74
     0
 49
-0.25
 74
     0
 49
0.5
 74
     0
 49
-0.25
 74
     0
 49
0.0
 74
     0
 49
-0.25
 74
     0
  0
LTYPE
  5
8A
330
5
100
AcDbSymbolTableRecord
100
AcDbLinetypeTableRecord
  2
BORDER2
 70
     0
  3
Border (.5x) __.__.__.__.__.__.__.__.__.__.__.
 72
    65
 73
     6
 40
0.875
 49
0.25
 74
     0
 49
-0.125
 74
     0
 49
0.25
 74
     0
 49
-0.125
 74
     0
 49
0.0
 74
     0
 49
-0.125
 74
     0
  0
LTYPE
  5
8B
330
5
100
AcDbSymbolTableRecord
100
AcDbLinetypeTableRecord
  2
BORDERX2
 70
     0
  3
Border (2x) ____  ____  .  ____  ____  .  ___
 72
    65
 73
     6
 40
3.5
 49
1.0
 74
     0
 49
-0.5
 74
     0
 49
1.0
 74
     0
 49
-0.5
 74
     0
 49
0.0
 74
     0
 49
-0.5
 74
     0
  0
LTYPE
  5
8C
330
5
100
AcDbSymbolTableRecord
100
AcDbLinetypeTableRecord
  2
CENTER
 70
     0
  3
Center ____ _ ____ _ ____ _ ____ _ ____ _ ____
 72
    65
 73
     4
 40
2.0
 49
1.25
 74
     0
 49
-0.25
 74
     0
 49
0.25
 74
     0
 49
-0.25
 74
     0
  0
LTYPE
  5
8D
330
5
100
AcDbSymbolTableRecord
100
AcDbLinetypeTableRecord
  2
CENTER2
 70
     0
  3
Center (.5x) ___ _ ___ _ ___ _ ___ _ ___ _ ___
 72
    65
 73
     4
 40
1.125
 49
0.75
 74
     0
 49
-0.125
 74
     0
 49
0.125
 74
     0
 49
-0.125
 74
     0
  0
LTYPE
  5
8E
330
5
100
AcDbSymbolTableRecord
100
AcDbLinetypeTableRecord
  2
CENTERX2
 70
     0
  3
Center (2x) ________  __  ________  __  _____
 72
    65
 73
     4
 40
4.0
 49
2.5
 74
     0
 49
-0.5
 74
     0
 49
0.5
 74
     0
 49
-0.5
 74
     0
  0
LTYPE
  5
8F
330
5
100
AcDbSymbolTableRecord
100
AcDbLinetypeTableRecord
  2
DASHDOT2
 70
     0
  3
Dash dot (.5x) _._._._._._._._._._._._._._._.
 72
    65
 73
     4
 40
0.5
 49
0.25
 74
     0
 49
-0.125
 74
     0
 49
0.0
 74
     0
 49
-0.125
 74
     0
  0
LTYPE
  5
90
330
5
100
AcDbSymbolTableRecord
100
AcDbLinetypeTableRecord
  2
DASHDOTX2
 70
     0
  3
Dash dot (2x) ____  .  ____  .  ____  .  ___
 72
    65
 73
     4
 40
2.0
 49
1.0
 74
     0
 49
-0.5
 74
     0
 49
0.0
 74
     0
 49
-0.5
 74
     0
  0
LTYPE
  5
92
330
5
100
AcDbSymbolTableRecord
100
AcDbLinetypeTableRecord
  2
DASHED2
 70
     0
  3
Dashed (.5x) _ _ _ _ _ _ _ _ _ _ _ _ _ _ _ _ _
 72
    65
 73
     2
 40
0.375
 49
0.25
 74
     0
 49
-0.125
 74
     0
  0
LTYPE
  5
93
330
5
100
AcDbSymbolTableRecord
100
AcDbLinetypeTableRecord
  2
DASHEDX2
 70
     0
  3
Dashed (2x) ____  ____  ____  ____  ____  ___
 72
    65
 73
     2
 40
1.5
 49
1.0
 74
     0
 49
-0.5
 74
     0
  0
LTYPE
  5
94
330
5
100
AcDbSymbolTableRecord
100
AcDbLinetypeTableRecord
  2
DIVIDE
 70
     0
  3
Divide ____ . . ____ . . ____ . . ____ . . ____
 72
    65
 73
     6
 40
1.25
 49
0.5
 74
     0
 49
-0.25
 74
     0
 49
0.0
 74
     0
 49
-0.25
 74
     0
 49
0.0
 74
     0
 49
-0.25
 74
     0
  0
LTYPE
  5
95
330
5
100
AcDbSymbolTableRecord
100
AcDbLinetypeTableRecord
  2
DIVIDE2
 70
     0
  3
Divide (.5x) __..__..__..__..__..__..__..__.._
 72
    65
 73
     6
 40
0.625
 49
0.25
 74
     0
 49
-0.125
 74
     0
 49
0.0
 74
     0
 49
-0.125
 74
     0
 49
0.0
 74
     0
 49
-0.125
 74
     0
  0
LTYPE
  5
96
330
5
100
AcDbSymbolTableRecord
100
AcDbLinetypeTableRecord
  2
DIVIDEX2
 70
     0
  3
Divide (2x) ________  .  .  ________  .  .  _
 72
    65
 73
     6
 40
2.5
 49
1.0
 74
     0
 49
-0.5
 74
     0
 49
0.0
 74
     0
 49
-0.5
 74
     0
 49
0.0
 74
     0
 49
-0.5
 74
     0
  0
LTYPE
  5
97
330
5
100
AcDbSymbolTableRecord
100
AcDbLinetypeTableRecord
  2
DOT
 70
     0
  3
Dot . . . . . . . . . . . . . . . . . . . . . .
 72
    65
 73
     2
 40
0.25
 49
0.0
 74
     0
 49
-0.25
 74
     0
  0
LTYPE
  5
98
330
5
100
AcDbSymbolTableRecord
100
AcDbLinetypeTableRecord
  2
DOT2
 70
     0
  3
Dot (.5x) .....................................
 72
    65
 73
     2
 40
0.125
 49
0.0
 74
     0
 49
-0.125
 74
     0
  0
LTYPE
  5
99
330
5
100
AcDbSymbolTableRecord
100
AcDbLinetypeTableRecord
  2
DOTX2
 70
     0
  3
Dot (2x) .  .  .  .  .  .  .  .  .  .  .  .  . 
 72
    65
 73
     2
 40
0.5
 49
0.0
 74
     0
 49
-0.5
 74
     0
  0
LTYPE
  5
9A
330
5
100
AcDbSymbolTableRecord
100
AcDbLinetypeTableRecord
  2
HIDDEN
 70
     0
  3
Hidden __ __ __ __ __ __ __ __ __ __ __ __ __ _
 72
    65
 73
     2
 40
0.375
 49
0.25
 74
     0
 49
-0.125
 74
     0
  0
LTYPE
  5
9B
330
5
100
AcDbSymbolTableRecord
100
AcDbLinetypeTableRecord
  2
HIDDEN2
 70
     0
  3
Hidden (.5x) _ _ _ _ _ _ _ _ _ _ _ _ _ _ _ _ _
 72
    65
 73
     2
 40
0.1875
 49
0.125
 74
     0
 49
-0.0625
 74
     0
  0
LTYPE
  5
9C
330
5
100
AcDbSymbolTableRecord
100
AcDbLinetypeTableRecord
  2
HIDDENX2
 70
     0
  3
Hidden (2x) ____ ____ ____ ____ ____ ____ ____
 72
    65
 73
     2
 40
0.75
 49
0.5
 74
     0
 49
-0.25
 74
     0
  0
LTYPE
  5
9D
330
5
100
AcDbSymbolTableRecord
100
AcDbLinetypeTableRecord
  2
PHANTOM
 70
     0
  3
Phantom ______  __  __  ______  __  __  ______
 72
    65
 73
     6
 40
2.5
 49
1.25
 74
     0
 49
-0.25
 74
     0
 49
0.25
 74
     0
 49
-0.25
 74
     0
 49
0.25
 74
     0
 49
-0.25
 74
     0
  0
LTYPE
  5
9F
330
5
100
AcDbSymbolTableRecord
100
AcDbLinetypeTableRecord
  2
PHANTOMX2
 70
     0
  3
Phantom (2x) ____________    ____    ____   _
 72
    65
 73
     6
 40
5.0
 49
2.5
 74
     0
 49
-0.5
 74
     0
 49
0.5
 74
     0
 49
-0.5
 74
     0
 49
0.5
 74
     0
 49
-0.5
 74
     0
  0
LTYPE
  5
A0
330
5
100
AcDbSymbolTableRecord
100
AcDbLinetypeTableRecord
  2
ACAD_ISO02W100
 70
     0
  3
ISO dash __ __ __ __ __ __ __ __ __ __ __ __ __
 72
    65
 73
     2
 40
0.59
 49
0.47
 74
     0
 49
-0.12
 74
     0
  0
LTYPE
  5
A1
330
5
100
AcDbSymbolTableRecord
100
AcDbLinetypeTableRecord
  2
ACAD_ISO03W100
 70
     0
  3
ISO dash space __    __    __    __    __    __
 72
    65
 73
     2
 40
1.179999999999999
 49
0.47
 74
     0
 49
-0.71
 74
     0
  0
LTYPE
  5
A2
330
5
100
AcDbSymbolTableRecord
100
AcDbLinetypeTableRecord
  2
ACAD_ISO04W100
 70
     0
  3
ISO long-dash dot ____ . ____ . ____ . ____ . _
 72
    65
 73
     4
 40
1.179999999999999
 49
0.9399999999999998
 74
     0
 49
-0.12
 74
     0
 49
0.0
 74
     0
 49
-0.12
 74
     0
  0
LTYPE
  5
A3
330
5
100
AcDbSymbolTableRecord
100
AcDbLinetypeTableRecord
  2
ACAD_ISO05W100
 70
     0
  3
ISO long-dash double-dot ____ .. ____ .. ____ .
 72
    65
 73
     6
 40
1.299999999999999
 49
0.9399999999999998
 74
     0
 49
-0.12
 74
     0
 49
0.0
 74
     0
 49
-0.12
 74
     0
 49
0.0
 74
     0
 49
-0.12
 74
     0
  0
LTYPE
  5
A4
330
5
100
AcDbSymbolTableRecord
100
AcDbLinetypeTableRecord
  2
ACAD_ISO06W100
 70
     0
  3
ISO long-dash triple-dot ____ ... ____ ... ____
 72
    65
 73
     8
 40
1.419999999999999
 49
0.9399999999999998
 74
     0
 49
-0.12
 74
     0
 49
0.0
 74
     0
 49
-0.12
 74
     0
 49
0.0
 74
     0
 49
-0.12
 74
     0
 49
0.0
 74
     0
 49
-0.12
 74
     0
  0
LTYPE
  5
A5
330
5
100
AcDbSymbolTableRecord
100
AcDbLinetypeTableRecord
  2
ACAD_ISO07W100
 70
     0
  3
ISO dot . . . . . . . . . . . . . . . . . . . .
 72
    65
 73
     2
 40
0.12
 49
0.0
 74
     0
 49
-0.12
 74
     0
  0
LTYPE
  5
A6
330
5
100
AcDbSymbolTableRecord
100
AcDbLinetypeTableRecord
  2
ACAD_ISO08W100
 70
     0
  3
ISO long-dash short-dash ____ __ ____ __ ____ _
 72
    65
 73
     4
 40
0.95
 49
0.47
 74
     0
 49
-0.12
 74
     0
 49
0.24
 74
     0
 49
-0.12
 74
     0
  0
LTYPE
  5
A7
330
5
100
AcDbSymbolTableRecord
100
AcDbLinetypeTableRecord
  2
ACAD_ISO09W100
 70
     0
  3
ISO long-dash double-short-dash ____ __ __ ____
 72
    65
 73
     6
 40
1.31
 49
0.47
 74
     0
 49
-0.12
 74
     0
 49
0.24
 74
     0
 49
-0.12
 74
     0
 49
0.24
 74
     0
 49
-0.12
 74
     0
  0
LTYPE
  5
A8
330
5
100
AcDbSymbolTableRecord
100
AcDbLinetypeTableRecord
  2
ACAD_ISO10W100
 70
     0
  3
ISO dash dot __ . __ . __ . __ . __ . __ . __ .
 72
    65
 73
     4
 40
0.71
 49
0.47
 74
     0
 49
-0.12
 74
     0
 49
0.0
 74
     0
 49
-0.12
 74
     0
  0
LTYPE
  5
A9
330
5
100
AcDbSymbolTableRecord
100
AcDbLinetypeTableRecord
  2
ACAD_ISO11W100
 70
     0
  3
ISO double-dash dot __ __ . __ __ . __ __ . __ 
 72
    65
 73
     6
 40
1.299999999999999
 49
0.47
 74
     0
 49
-0.12
 74
     0
 49
0.47
 74
     0
 49
-0.12
 74
     0
 49
0.0
 74
     0
 49
-0.12
 74
     0
  0
LTYPE
  5
AA
330
5
100
AcDbSymbolTableRecord
100
AcDbLinetypeTableRecord
  2
ACAD_ISO12W100
 70
     0
  3
ISO dash double-dot __ . . __ . . __ . . __ . .
 72
    65
 73
     6
 40
0.8299999999999998
 49
0.47
 74
     0
 49
-0.12
 74
     0
 49
0.0
 74
     0
 49
-0.12
 74
     0
 49
0.0
 74
     0
 49
-0.12
 74
     0
  0
LTYPE
  5
AB
330
5
100
AcDbSymbolTableRecord
100
AcDbLinetypeTableRecord
  2
ACAD_ISO13W100
 70
     0
  3
ISO double-dash double-dot __ __ . . __ __ . . 
 72
    65
 73
     8
 40
1.419999999999999
 49
0.47
 74
     0
 49
-0.12
 74
     0
 49
0.47
 74
     0
 49
-0.12
 74
     0
 49
0.0
 74
     0
 49
-0.12
 74
     0
 49
0.0
 74
     0
 49
-0.12
 74
     0
  0
LTYPE
  5
AC
330
5
100
AcDbSymbolTableRecord
100
AcDbLinetypeTableRecord
  2
ACAD_ISO14W100
 70
     0
  3
ISO dash triple-dot __ . . . __ . . . __ . . . 
 72
    65
 73
     8
 40
0.95
 49
0.47
 74
     0
 49
-0.12
 74
     0
 49
0.0
 74
     0
 49
-0.12
 74
     0
 49
0.0
 74
     0
 49
-0.12
 74
     0
 49
0.0
 74
     0
 49
-0.12
 74
     0
  0
LTYPE
  5
AD
330
5
100
AcDbSymbolTableRecord
100
AcDbLinetypeTableRecord
  2
ACAD_ISO15W100
 70
     0
  3
ISO double-dash triple-dot __ __ . . . __ __ . 
 72
    65
 73
    10
 40
1.539999999999999
 49
0.47
 74
     0
 49
-0.12
 74
     0
 49
0.47
 74
     0
 49
-0.12
 74
     0
 49
0.0
 74
     0
 49
-0.12
 74
     0
 49
0.0
 74
     0
 49
-0.12
 74
     0
 49
0.0
 74
     0
 49
-0.12
 74
     0
  0
LTYPE
  5
B0
330
5
100
AcDbSymbolTableRecord
100
AcDbLinetypeTableRecord
  2
FENCELINE1
 70
     0
  3
Fenceline circle ----0-----0----0-----0----0---
 72
    65
 73
     4
 40
1.45
 49
0.25
 74
     0
 49
-0.1
 74
     4
 75
   133
340
AF
 46
0.1
 50
0.0
 44
-0.1
 45
0.0
 49
-0.1
 74
     0
 49
1.0
 74
     0
  0
LTYPE
  5
B1
330
5
100
AcDbSymbolTableRecord
100
AcDbLinetypeTableRecord
  2
FENCELINE2
 70
     0
  3
Fenceline square ----[]-----[]----[]-----[]----
 72
    65
 73
     4
 40
1.45
 49
0.25
 74
     0
 49
-0.1
 74
     4
 75
   132
340
AF
 46
0.1
 50
0.0
 44
-0.1
 45
0.0
 49
-0.1
 74
     0
 49
1.0
 74
     0
  0
LTYPE
  5
B2
330
5
100
AcDbSymbolTableRecord
100
AcDbLinetypeTableRecord
  2
TRACKS
 70
     0
  3
Tracks -|-|-|-|-|-|-|-|-|-|-|-|-|-|-|-|-|-|-|-|
 72
    65
 73
     2
 40
0.3
 49
0.15
 74
     4
 75
   130
340
AF
 46
0.25
 50
0.0
 44
0.0
 45
0.0
 49
0.15
 74
     0
  0
LTYPE
  5
B3
330
5
100
AcDbSymbolTableRecord
100
AcDbLinetypeTableRecord
  2
BATTING
 70
     0
  3
Batting SSSSSSSSSSSSSSSSSSSSSSSSSSSSSSSSSSSSSSS
 72
    65
 73
     4
 40
0.4001000000000001
 49
0.0001
 74
     0
 49
-0.1
 74
     4
 75
   134
340
AF
 46
0.1
 50
0.0
 44
-0.1
 45
0.0
 49
-0.2
 74
     4
 75
   134
340
AF
 46
0.1
 50
180.0
 44
0.1
 45
0.0
 49
-0.1
 74
     0
  0
LTYPE
  5
B4
330
5
100
AcDbSymbolTableRecord
100
AcDbLinetypeTableRecord
  2
HOT_WATER_SUPPLY
 70
     0
  3
Hot water supply ---- HW ---- HW ---- HW ----
 72
    65
 73
     3
 40
0.9
 49
0.5
 74
     0
 49
-0.2
 74
     2
 75
     0
340
55
 46
0.1
 50
0.0
 44
-0.1
 45
-0.05
  9
HW
 49
-0.2
 74
     0
  0
LTYPE
  5
B5
330
5
100
AcDbSymbolTableRecord
100
AcDbLinetypeTableRecord
  2
GAS_LINE
 70
     0
  3
Gas line ----GAS----GAS----GAS----GAS----GAS---
 72
    65
 73
     3
 40
0.95
 49
0.5
 74
     0
 49
-0.2
 74
     2
 75
     0
340
55
 46
0.1
 50
0.0
 44
-0.1
 45
-0.05
  9
GAS
 49
-0.25
 74
     0
  0
LTYPE
  5
B6
330
5
100
AcDbSymbolTableRecord
100
AcDbLinetypeTableRecord
  2
ZIGZAG
 70
     0
  3
Zig zag /\/\/\/\/\/\/\/\/\/\/\/\/\/\/\/\/\/\/\/
 72
    65
 73
     4
 40
0.8001000000000001
 49
0.0001
 74
     0
 49
-0.2
 74
     4
 75
   131
340
AF
 46
0.2
 50
0.0
 44
-0.2
 45
0.0
 49
-0.4
 74
     4
 75
   131
340
AF
 46
0.2
 50
180.0
 44
0.2
 45
0.0
 49
-0.2
 74
     0
  0
ENDTAB
  0
TABLE
  2
LAYER
  5
2
330
0
100
AcDbSymbolTable
 70
    26
  0
LAYER
  5
54
330
2
100
AcDbSymbolTableRecord
100
AcDbLayerTableRecord
  2
0
 70
     0
 62
     7
  6
Continuous
370
    -3
390
F
347
21
348
0
  0
LAYER
  5
C1
330
2
100
AcDbSymbolTableRecord
100
AcDbLayerTableRecord
  2
Hidden (ANSI)
 70
     0
 62
     7
  6
DASHED
370
    35
390
F
347
21
348
0
  0
LAYER
  5
CB
330
2
100
AcDbSymbolTableRecord
100
AcDbLayerTableRecord
  2
Visible (ANSI)
 70
     0
 62
     7
  6
Continuous
370
    50
390
F
347
21
348
0
  0
ENDTAB
  0
TABLE
  2
STYLE
  5
3
330
0
100
AcDbSymbolTable
 70
     3
  0
STYLE
  5
55
330
3
100
AcDbSymbolTableRecord
100
AcDbTextStyleTableRecord
  2
Standard
 70
     0
 40
0.0
 41
1.0
 50
0.0
 71
     0
 42
0.2
  3
tahoma.ttf
  4

1001
ACAD
1000
Tahoma
1071
      256
  0
STYLE
  5
5A
330
3
100
AcDbSymbolTableRecord
100
AcDbTextStyleTableRecord
  2
Annotative
 70
     0
 40
0.0
 41
1.0
 50
0.0
 71
     0
 42
0.2
  3
txt
  4

1001
AcadAnnotative
1000
AnnotativeData
1002
{
1070
     1
1070
     1
1002
}
  0
STYLE
  5
AF
330
3
100
AcDbSymbolTableRecord
100
AcDbTextStyleTableRecord
  2

 70
     1
 40
0.0
 41
1.0
 50
0.0
 71
     0
 42
0.2
  3
ltypeshp.shx
  4

  0
ENDTAB
  0
TABLE
  2
VIEW
  5
6
330
0
100
AcDbSymbolTable
 70
     0
  0
ENDTAB
  0
TABLE
  2
UCS
  5
7
330
0
100
AcDbSymbolTable
 70
     0
  0
ENDTAB
  0
TABLE
  2
APPID
  5
9
330
0
100
AcDbSymbolTable
 70
     2
  0
APPID
  5
56
330
9
100
AcDbSymbolTableRecord
100
AcDbRegAppTableRecord
  2
ACAD
 70
     0
  0
APPID
  5
5E
330
9
100
AcDbSymbolTableRecord
100
AcDbRegAppTableRecord
  2
AcadAnnotative
 70
     0
  0
ENDTAB
  0
TABLE
  2
DIMSTYLE
  5
A
330
0
100
AcDbSymbolTable
 70
     2
100
AcDbDimStyleTable
 71
     0
  0
DIMSTYLE
105
58
330
A
100
AcDbSymbolTableRecord
100
AcDbDimStyleTableRecord
  2
Standard
 70
     0
340
55
  0
DIMSTYLE
105
59
330
A
100
AcDbSymbolTableRecord
100
AcDbDimStyleTableRecord
  2
Annotative
 70
     0
340
55
1001
AcadAnnotative
1000
AnnotativeData
1002
{
1070
     1
1070
     1
1002
}
  0
ENDTAB
  0
TABLE
  2
BLOCK_RECORD
  5
1
330
0
100
AcDbSymbolTable
 70
     1
  0
BLOCK_RECORD
  5
71
330
1
100
AcDbSymbolTableRecord
100
AcDbBlockTableRecord
  2
*Model_Space
340
74
 70
     0
280
     1
281
     0
  0
BLOCK_RECORD
  5
6D
330
1
100
AcDbSymbolTableRecord
100
AcDbBlockTableRecord
  2
*Paper_Space
340
70
 70
     0
280
     1
281
     0
  0
BLOCK_RECORD
  5
75
330
1
100
AcDbSymbolTableRecord
100
AcDbBlockTableRecord
  2
*Paper_Space0
340
78
 70
     0
280
     1
281
     0
  0
ENDTAB
  0
ENDSEC
  0
SECTION
  2
BLOCKS
  0
BLOCK
  5
72
330
71
100
AcDbEntity
  8
0
100
AcDbBlockBegin
  2
*Model_Space
 70
     0
 10
0.0
 20
0.0
 30
0.0
  3
*Model_Space
  1

  0
ENDBLK
  5
73
330
71
100
AcDbEntity
  8
0
100
AcDbBlockEnd
  0
BLOCK
  5
6E
330
6D
100
AcDbEntity
 67
     1
  8
0
100
AcDbBlockBegin
  2
*Paper_Space
 70
     0
 10
0.0
 20
0.0
 30
0.0
  3
*Paper_Space
  1

  0
ENDBLK
  5
6F
330
6D
100
AcDbEntity
 67
     1
  8
0
100
AcDbBlockEnd
  0
BLOCK
  5
76
330
75
100
AcDbEntity
 67
     1
  8
0
100
AcDbBlockBegin
  2
*Paper_Space0
 70
     0
 10
0.0
 20
0.0
 30
0.0
  3
*Paper_Space0
  1

  0
ENDBLK
  5
77
330
75
100
AcDbEntity
 67
     1
  8
0
100
AcDbBlockEnd
  0
ENDSEC
  0
SECTION
  2
ENTITIES
  0
ARC
  5
D0
330
71
100
AcDbEntity
  8
Visible (ANSI)
100
AcDbCircle
 10
63.40253979619411
 20
164.3896101178098
 30
0.0
 40
1.1
100
AcDbArc
 50
90.0
 51
270.0
  0
LINE
  5
D1
330
71
100
AcDbEntity
  8
Visible (ANSI)
100
AcDbLine
 10
63.40253979619411
 20
165.4896101178098
 30
0.0
 11
78.60253979619412
 21
165.4896101178098
 31
0.0
  0
LINE
  5
D2
330
71
100
AcDbEntity
  8
Visible (ANSI)
100
AcDbLine
 10
63.40253979619411
 20
190.4896101178098
 30
0.0
 11
78.60253979619412
 21
190.4896101178098
 31
0.0
  0
ARC
  5
D3
330
71
100
AcDbEntity
  8
Visible (ANSI)
100
AcDbCircle
 10
78.60253979619412
 20
189.3896101178098
 30
0.0
 40
1.1
100
AcDbArc
 50
270.0
 51
90.0
  0
ARC
  5
D4
330
71
100
AcDbEntity
  8
Visible (ANSI)
100
AcDbCircle
 10
78.60253979619412
 20
214.3896101178098
 30
0.0
 40
1.099999999999998
100
AcDbArc
 50
270.0
 51
90.0
  0
LINE
  5
D5
330
71
100
AcDbEntity
  8
Visible (ANSI)
100
AcDbLine
 10
78.60253979619412
 20
213.2896101178098
 30
0.0
 11
63.40253979619411
 21
213.2896101178098
 31
0.0
  0
ARC
  5
D6
330
71
100
AcDbEntity
  8
Visible (ANSI)
100
AcDbCircle
 10
128.6025397961941
 20
164.3896101178097
 30
0.0
 40
1.1
100
AcDbArc
 50
270.0
 51
90.0
  0
LINE
  5
D7
330
71
100
AcDbEntity
  8
Visible (ANSI)
100
AcDbLine
 10
128.6025397961941
 20
163.2896101178097
 30
0.0
 11
113.4025397961941
 21
163.2896101178097
 31
0.0
  0
ARC
  5
D8
330
71
100
AcDbEntity
  8
Visible (ANSI)
100
AcDbCircle
 10
128.6025397961941
 20
189.3896101178098
 30
0.0
 40
1.1
100
AcDbArc
 50
270.0
 51
90.0
  0
LINE
  5
D9
330
71
100
AcDbEntity
  8
Visible (ANSI)
100
AcDbLine
 10
128.6025397961941
 20
188.2896101178097
 30
0.0
 11
113.4025397961941
 21
188.2896101178097
 31
0.0
  0
ARC
  5
DA
330
71
100
AcDbEntity
  8
Visible (ANSI)
100
AcDbCircle
 10
128.6025397961941
 20
214.3896101178098
 30
0.0
 40
1.099999999999998
100
AcDbArc
 50
270.0
 51
90.0
  0
LINE
  5
DB
330
71
100
AcDbEntity
  8
Visible (ANSI)
100
AcDbLine
 10
128.6025397961941
 20
213.2896101178098
 30
0.0
 11
113.4025397961941
 21
213.2896101178098
 31
0.0
  0
LINE
  5
DC
330
71
100
AcDbEntity
  8
Visible (ANSI)
100
AcDbLine
 10
128.6025397961941
 20
166.4896101178098
 30
0.0
 11
113.4025397961941
 21
166.4896101178098
 31
0.0
  0
LINE
  5
DD
330
71
100
AcDbEntity
  8
Visible (ANSI)
100
AcDbLine
 10
113.4025397961941
 20
165.4896101178098
 30
0.0
 11
128.6025397961941
 21
165.4896101178098
 31
0.0
  0
ARC
  5
DE
330
71
100
AcDbEntity
  8
Visible (ANSI)
100
AcDbCircle
 10
128.6025397961941
 20
164.3896101178097
 30
0.0
 40
2.100000000000001
100
AcDbArc
 50
270.0
 51
90.0
  0
LINE
  5
DF
330
71
100
AcDbEntity
  8
Visible (ANSI)
100
AcDbLine
 10
113.4025397961941
 20
162.2896101178097
 30
0.0
 11
128.6025397961941
 21
162.2896101178097
 31
0.0
  0
ARC
  5
E0
330
71
100
AcDbEntity
  8
Visible (ANSI)
100
AcDbCircle
 10
113.4025397961941
 20
164.3896101178097
 30
0.0
 40
2.100000000000002
100
AcDbArc
 50
90.0
 51
270.0
  0
ARC
  5
E1
330
71
100
AcDbEntity
  8
Visible (ANSI)
100
AcDbCircle
 10
113.4025397961941
 20
164.3896101178097
 30
0.0
 40
1.1
100
AcDbArc
 50
90.0
 51
270.0
  0
LINE
  5
E2
330
71
100
AcDbEntity
  8
Visible (ANSI)
100
AcDbLine
 10
128.6025397961941
 20
191.4896101178098
 30
0.0
 11
113.4025397961941
 21
191.4896101178098
 31
0.0
  0
ARC
  5
E3
330
71
100
AcDbEntity
  8
Visible (ANSI)
100
AcDbCircle
 10
128.6025397961941
 20
189.3896101178098
 30
0.0
 40
2.100000000000001
100
AcDbArc
 50
270.0
 51
90.0
  0
LINE
  5
E4
330
71
100
AcDbEntity
  8
Visible (ANSI)
100
AcDbLine
 10
113.4025397961941
 20
187.2896101178097
 30
0.0
 11
128.6025397961941
 21
187.2896101178097
 31
0.0
  0
ARC
  5
E5
330
71
100
AcDbEntity
  8
Visible (ANSI)
100
AcDbCircle
 10
113.4025397961941
 20
189.3896101178098
 30
0.0
 40
2.100000000000001
100
AcDbArc
 50
90.0
 51
270.0
  0
LINE
  5
E6
330
71
100
AcDbEntity
  8
Visible (ANSI)
100
AcDbLine
 10
78.60253979619412
 20
166.4896101178098
 30
0.0
 11
63.40253979619411
 21
166.4896101178098
 31
0.0
  0
ARC
  5
E7
330
71
100
AcDbEntity
  8
Visible (ANSI)
100
AcDbCircle
 10
78.60253979619412
 20
164.3896101178098
 30
0.0
 40
2.100000000000001
100
AcDbArc
 50
269.9999999999998
 51
89.99999999999976
  0
LINE
  5
E8
330
71
100
AcDbEntity
  8
Visible (ANSI)
100
AcDbLine
 10
63.40253979619411
 20
162.2896101178097
 30
0.0
 11
78.60253979619412
 21
162.2896101178097
 31
0.0
  0
ARC
  5
E9
330
71
100
AcDbEntity
  8
Visible (ANSI)
100
AcDbCircle
 10
63.40253979619411
 20
164.3896101178098
 30
0.0
 40
2.1
100
AcDbArc
 50
90.0
 51
270.0
  0
LINE
  5
EA
330
71
100
AcDbEntity
  8
Visible (ANSI)
100
AcDbLine
 10
78.60253979619412
 20
216.4896101178098
 30
0.0
 11
63.40253979619411
 21
216.4896101178098
 31
0.0
  0
ARC
  5
EB
330
71
100
AcDbEntity
  8
Visible (ANSI)
100
AcDbCircle
 10
78.60253979619412
 20
214.3896101178098
 30
0.0
 40
2.099999999999999
100
AcDbArc
 50
269.9999999999998
 51
89.99999999999976
  0
LINE
  5
EC
330
71
100
AcDbEntity
  8
Visible (ANSI)
100
AcDbLine
 10
63.40253979619411
 20
212.2896101178098
 30
0.0
 11
78.60253979619411
 21
212.2896101178098
 31
0.0
  0
ARC
  5
ED
330
71
100
AcDbEntity
  8
Visible (ANSI)
100
AcDbCircle
 10
63.40253979619411
 20
214.3896101178098
 30
0.0
 40
2.099999999999999
100
AcDbArc
 50
90.0
 51
270.0
  0
LINE
  5
EE
330
71
100
AcDbEntity
  8
Visible (ANSI)
100
AcDbLine
 10
78.60253979619412
 20
191.4896101178098
 30
0.0
 11
63.40253979619411
 21
191.4896101178098
 31
0.0
  0
ARC
  5
EF
330
71
100
AcDbEntity
  8
Visible (ANSI)
100
AcDbCircle
 10
78.60253979619412
 20
189.3896101178098
 30
0.0
 40
2.100000000000001
100
AcDbArc
 50
269.9999999999998
 51
89.99999999999976
  0
LINE
  5
F0
330
71
100
AcDbEntity
  8
Visible (ANSI)
100
AcDbLine
 10
63.40253979619411
 20
187.2896101178097
 30
0.0
 11
78.60253979619412
 21
187.2896101178097
 31
0.0
  0
ARC
  5
F1
330
71
100
AcDbEntity
  8
Visible (ANSI)
100
AcDbCircle
 10
63.40253979619411
 20
189.3896101178098
 30
0.0
 40
2.100000000000001
100
AcDbArc
 50
90.0
 51
270.0
  0
LINE
  5
F2
330
71
100
AcDbEntity
  8
Visible (ANSI)
100
AcDbLine
 10
128.6025397961941
 20
216.4896101178098
 30
0.0
 11
113.4025397961941
 21
216.4896101178098
 31
0.0
  0
ARC
  5
F3
330
71
100
AcDbEntity
  8
Visible (ANSI)
100
AcDbCircle
 10
128.6025397961941
 20
214.3896101178098
 30
0.0
 40
2.099999999999999
100
AcDbArc
 50
270.0
 51
90.0
  0
LINE
  5
F4
330
71
100
AcDbEntity
  8
Visible (ANSI)
100
AcDbLine
 10
113.4025397961941
 20
212.2896101178098
 30
0.0
 11
128.6025397961941
 21
212.2896101178098
 31
0.0
  0
ARC
  5
F5
330
71
100
AcDbEntity
  8
Visible (ANSI)
100
AcDbCircle
 10
113.4025397961941
 20
214.3896101178098
 30
0.0
 40
2.099999999999999
100
AcDbArc
 50
90.0
 51
270.0
  0
LINE
  5
F6
330
71
100
AcDbEntity
  8
Visible (ANSI)
100
AcDbLine
 10
113.4025397961941
 20
190.4896101178098
 30
0.0
 11
128.6025397961941
 21
190.4896101178098
 31
0.0
  0
ARC
  5
F7
330
71
100
AcDbEntity
  8
Visible (ANSI)
100
AcDbCircle
 10
113.4025397961941
 20
189.3896101178098
 30
0.0
 40
1.1
100
AcDbArc
 50
90.0
 51
270.0
  0
LINE
  5
F8
330
71
100
AcDbEntity
  8
Visible (ANSI)
100
AcDbLine
 10
113.4025397961941
 20
215.4896101178098
 30
0.0
 11
128.6025397961941
 21
215.4896101178098
 31
0.0
  0
ARC
  5
F9
330
71
100
AcDbEntity
  8
Visible (ANSI)
100
AcDbCircle
 10
113.4025397961941
 20
214.3896101178098
 30
0.0
 40
1.099999999999998
100
AcDbArc
 50
90.0
 51
270.0
  0
ARC
  5
FA
330
71
100
AcDbEntity
  8
Visible (ANSI)
100
AcDbCircle
 10
78.60253979619412
 20
164.3896101178098
 30
0.0
 40
1.1
100
AcDbArc
 50
270.0
 51
90.0
  0
LINE
  5
FB
330
71
100
AcDbEntity
  8
Visible (ANSI)
100
AcDbLine
 10
78.60253979619412
 20
163.2896101178097
 30
0.0
 11
63.40253979619411
 21
163.2896101178097
 31
0.0
  0
LINE
  5
FC
330
71
100
AcDbEntity
  8
Visible (ANSI)
100
AcDbLine
 10
78.60253979619412
 20
188.2896101178097
 30
0.0
 11
63.40253979619411
 21
188.2896101178097
 31
0.0
  0
ARC
  5
FD
330
71
100
AcDbEntity
  8
Visible (ANSI)
100
AcDbCircle
 10
63.40253979619411
 20
189.3896101178098
 30
0.0
 40
1.1
100
AcDbArc
 50
90.0
 51
270.0
  0
LINE
  5
FE
330
71
100
AcDbEntity
  8
Visible (ANSI)
100
AcDbLine
 10
63.40253979619411
 20
215.4896101178098
 30
0.0
 11
78.60253979619412
 21
215.4896101178098
 31
0.0
  0
ARC
  5
FF
330
71
100
AcDbEntity
  8
Visible (ANSI)
100
AcDbCircle
 10
63.40253979619411
 20
214.3896101178098
 30
0.0
 40
1.099999999999998
100
AcDbArc
 50
90.0
 51
270.0
  0
SPLINE
  5
100
330
71
100
AcDbEntity
  8
Visible (ANSI)
100
AcDbSpline
210
0.0
220
0.0
230
1.0
 70
     8
 71
     2
 72
     7
 73
     4
 74
     0
 42
0.000000001
 43
0.0000000001
 40
0.0
 40
0.0
 40
0.0
 40
1.0
 40
2.0
 40
2.0
 40
2.0
 10
104.9768249443087
 20
201.7610387296235
 30
0.0
 10
104.6311106644818
 20
201.7610387296235
 30
0.0
 10
104.0596821027847
 20
201.9267530125157
 30
0.0
 10
103.8482535349567
 20
202.0981815810249
 30
0.0
  0
SPLINE
  5
101
330
71
100
AcDbEntity
  8
Visible (ANSI)
100
AcDbSpline
210
0.0
220
0.0
230
1.0
 70
     8
 71
     2
 72
     7
 73
     4
 74
     0
 42
0.000000001
 43
0.0000000001
 40
0.0
 40
0.0
 40
0.0
 40
1.0
 40
2.0
 40
2.0
 40
2.0
 10
103.8482535349567
 20
202.0981815810249
 30
0.0
 10
103.6396821099372
 20
202.269610149534
 30
0.0
 10
103.4082535424498
 20
202.7896101406785
 30
0.0
 10
103.4082535424498
 20
203.1410387061223
 30
0.0
  0
SPLINE
  5
102
330
71
100
AcDbEntity
  8
Visible (ANSI)
100
AcDbSpline
210
0.0
220
0.0
230
1.0
 70
     8
 71
     2
 72
     7
 73
     4
 74
     0
 42
0.000000001
 43
0.0000000001
 40
0.0
 40
0.0
 40
0.0
 40
1.0
 40
2.0
 40
2.0
 40
2.0
 10
103.4082535424498
 20
203.1410387061223
 30
0.0
 10
103.4082535424498
 20
203.509610128417
 30
0.0
 10
103.6539678239796
 20
204.0467529764123
 30
0.0
 10
103.8768249630416
 20
204.22103868773
 30
0.0
  0
SPLINE
  5
103
330
71
100
AcDbEntity
  8
Visible (ANSI)
100
AcDbSpline
210
0.0
220
0.0
230
1.0
 70
     8
 71
     2
 72
     7
 73
     4
 74
     0
 42
0.000000001
 43
0.0000000001
 40
0.0
 40
0.0
 40
0.0
 40
1.0
 40
2.0
 40
2.0
 40
2.0
 10
103.8768249630416
 20
204.22103868773
 30
0.0
 10
104.091110673678
 20
204.3896101134307
 30
0.0
 10
104.6482535213328
 20
204.5438958250889
 30
0.0
 10
104.9511106590323
 20
204.5438958250889
 30
0.0
  0
SPLINE
  5
104
330
71
100
AcDbEntity
  8
Visible (ANSI)
100
AcDbSpline
210
0.0
220
0.0
230
1.0
 70
     8
 71
     2
 72
     7
 73
     4
 74
     0
 42
0.000000001
 43
0.0000000001
 40
0.0
 40
0.0
 40
0.0
 40
1.0
 40
2.0
 40
2.0
 40
2.0
 10
104.9511106590323
 20
204.5438958250889
 30
0.0
 10
105.21968208303
 20
204.5438958250889
 30
0.0
 10
105.6768249323877
 20
204.426752969941
 30
0.0
 10
105.8739677861733
 20
204.3324672572609
 30
0.0
  0
LINE
  5
105
330
71
100
AcDbEntity
  8
Visible (ANSI)
100
AcDbLine
 10
105.8739677861733
 20
204.3324672572609
 30
0.0
 11
105.8739677861733
 21
203.609610126714
 31
0.0
  0
LINE
  5
106
330
71
100
AcDbEntity
  8
Visible (ANSI)
100
AcDbLine
 10
105.8739677861733
 20
203.609610126714
 30
0.0
 11
105.7539677882168
 21
203.609610126714
 31
0.0
  0
SPLINE
  5
107
330
71
100
AcDbEntity
  8
Visible (ANSI)
100
AcDbSpline
210
0.0
220
0.0
230
1.0
 70
     8
 71
     2
 72
     7
 73
     4
 74
     0
 42
0.000000001
 43
0.0000000001
 40
0.0
 40
0.0
 40
0.0
 40
1.0
 40
2.0
 40
2.0
 40
2.0
 10
105.7539677882168
 20
203.609610126714
 30
0.0
 10
105.7053963604726
 20
203.6524672688412
 30
0.0
 10
105.5653963628568
 20
203.7667529811807
 30
0.0
 10
105.4653963645598
 20
203.821038694542
 30
0.0
  0
SPLINE
  5
108
330
71
100
AcDbEntity
  8
Visible (ANSI)
100
AcDbSpline
210
0.0
220
0.0
230
1.0
 70
     8
 71
     2
 72
     7
 73
     4
 74
     0
 42
0.000000001
 43
0.0000000001
 40
0.0
 40
0.0
 40
0.0
 40
1.0
 40
2.0
 40
2.0
 40
2.0
 10
105.4653963645598
 20
203.821038694542
 30
0.0
 10
105.3682535090712
 20
203.8724672650947
 30
0.0
 10
105.1396820843923
 20
203.9410386924984
 30
0.0
 10
104.9882535155426
 20
203.9410386924984
 30
0.0
  0
SPLINE
  5
109
330
71
100
AcDbEntity
  8
Visible (ANSI)
100
AcDbSpline
210
0.0
220
0.0
230
1.0
 70
     8
 71
     2
 72
     7
 73
     4
 74
     0
 42
0.000000001
 43
0.0000000001
 40
0.0
 40
0.0
 40
0.0
 40
1.0
 40
2.0
 40
2.0
 40
2.0
 10
104.9882535155426
 20
203.9410386924984
 30
0.0
 10
104.6482535213328
 20
203.9410386924984
 30
0.0
 10
104.2853963846551
 20
203.509610128417
 30
0.0
 10
104.2853963846551
 20
203.1410387061223
 30
0.0
  0
SPLINE
  5
10A
330
71
100
AcDbEntity
  8
Visible (ANSI)
100
AcDbSpline
210
0.0
220
0.0
230
1.0
 70
     8
 71
     2
 72
     7
 73
     4
 74
     0
 42
0.000000001
 43
0.0000000001
 40
0.0
 40
0.0
 40
0.0
 40
1.0
 40
2.0
 40
2.0
 40
2.0
 10
104.2853963846551
 20
203.1410387061223
 30
0.0
 10
104.2853963846551
 20
202.7581815697852
 30
0.0
 10
104.6596820925667
 20
202.3638958622141
 30
0.0
 10
104.9996820867765
 20
202.3638958622141
 30
0.0
  0
SPLINE
  5
10B
330
71
100
AcDbEntity
  8
Visible (ANSI)
100
AcDbSpline
210
0.0
220
0.0
230
1.0
 70
     8
 71
     2
 72
     7
 73
     4
 74
     0
 42
0.000000001
 43
0.0000000001
 40
0.0
 40
0.0
 40
0.0
 40
1.0
 40
2.0
 40
2.0
 40
2.0
 10
104.9996820867765
 20
202.3638958622141
 30
0.0
 10
105.1596820840517
 20
202.3638958622141
 30
0.0
 10
105.4168249368155
 20
202.4381815752347
 30
0.0
 10
105.4996820782616
 20
202.486753002979
 30
0.0
  0
SPLINE
  5
10C
330
71
100
AcDbEntity
  8
Visible (ANSI)
100
AcDbSpline
210
0.0
220
0.0
230
1.0
 70
     8
 71
     2
 72
     7
 73
     4
 74
     0
 42
0.000000001
 43
0.0000000001
 40
0.0
 40
0.0
 40
0.0
 40
1.0
 40
2.0
 40
2.0
 40
2.0
 10
105.4996820782616
 20
202.486753002979
 30
0.0
 10
105.5796820768992
 20
202.5324672879148
 30
0.0
 10
105.7025392176641
 20
202.6381815718287
 30
0.0
 10
105.7539677882168
 20
202.686752999573
 30
0.0
  0
LINE
  5
10D
330
71
100
AcDbEntity
  8
Visible (ANSI)
100
AcDbLine
 10
105.7539677882168
 20
202.686752999573
 30
0.0
 11
105.8739677861733
 21
202.686752999573
 31
0.0
  0
LINE
  5
10E
330
71
100
AcDbEntity
  8
Visible (ANSI)
100
AcDbLine
 10
105.8739677861733
 20
202.686752999573
 30
0.0
 11
105.8739677861733
 21
201.9667530118346
 31
0.0
  0
SPLINE
  5
10F
330
71
100
AcDbEntity
  8
Visible (ANSI)
100
AcDbSpline
210
0.0
220
0.0
230
1.0
 70
     8
 71
     2
 72
     7
 73
     4
 74
     0
 42
0.000000001
 43
0.0000000001
 40
0.0
 40
0.0
 40
0.0
 40
1.0
 40
2.0
 40
2.0
 40
2.0
 10
105.8739677861733
 20
201.9667530118346
 30
0.0
 10
105.6739677895792
 20
201.8724672991545
 30
0.0
 10
105.2396820826894
 20
201.7610387296235
 30
0.0
 10
104.9768249443087
 20
201.7610387296235
 30
0.0
  0
LINE
  5
110
330
71
100
AcDbEntity
  8
Visible (ANSI)
100
AcDbLine
 10
98.01682506283677
 20
203.6667529828837
 30
0.0
 11
97.94253934981615
 21
203.6667529828837
 31
0.0
  0
SPLINE
  5
111
330
71
100
AcDbEntity
  8
Visible (ANSI)
100
AcDbSpline
210
0.0
220
0.0
230
1.0
 70
     8
 71
     2
 72
     7
 73
     4
 74
     0
 42
0.000000001
 43
0.0000000001
 40
0.0
 40
0.0
 40
0.0
 40
1.0
 40
2.0
 40
2.0
 40
2.0
 10
97.94253934981615
 20
203.6667529828837
 30
0.0
 10
97.88825363645493
 20
203.6867529825431
 30
0.0
 10
97.6482536405421
 20
203.703895839394
 30
0.0
 10
97.56825364190447
 20
203.703895839394
 30
0.0
  0
SPLINE
  5
112
330
71
100
AcDbEntity
  8
Visible (ANSI)
100
AcDbSpline
210
0.0
220
0.0
230
1.0
 70
     8
 71
     2
 72
     7
 73
     4
 74
     0
 42
0.000000001
 43
0.0000000001
 40
0.0
 40
0.0
 40
0.0
 40
1.0
 40
2.0
 40
2.0
 40
2.0
 10
97.56825364190447
 20
203.703895839394
 30
0.0
 10
97.38825364496987
 20
203.703895839394
 30
0.0
 10
97.11111079254671
 20
203.6581815544582
 30
0.0
 10
96.95111079527151
 20
203.6010386982886
 30
0.0
  0
LINE
  5
113
330
71
100
AcDbEntity
  8
Visible (ANSI)
100
AcDbLine
 10
96.95111079527151
 20
203.6010386982886
 30
0.0
 11
96.95111079527151
 21
201.8324672998357
 31
0.0
  0
LINE
  5
114
330
71
100
AcDbEntity
  8
Visible (ANSI)
100
AcDbLine
 10
96.95111079527151
 20
201.8324672998357
 30
0.0
 11
96.10253938115116
 21
201.8324672998357
 31
0.0
  0
LINE
  5
115
330
71
100
AcDbEntity
  8
Visible (ANSI)
100
AcDbLine
 10
96.10253938115116
 20
201.8324672998357
 30
0.0
 11
96.10253938115116
 21
204.4724672548768
 31
0.0
  0
LINE
  5
116
330
71
100
AcDbEntity
  8
Visible (ANSI)
100
AcDbLine
 10
96.10253938115116
 20
204.4724672548768
 30
0.0
 11
96.95111079527151
 21
204.4724672548768
 31
0.0
  0
LINE
  5
117
330
71
100
AcDbEntity
  8
Visible (ANSI)
100
AcDbLine
 10
96.95111079527151
 20
204.4724672548768
 30
0.0
 11
96.95111079527151
 21
204.0838958329227
 31
0.0
  0
SPLINE
  5
118
330
71
100
AcDbEntity
  8
Visible (ANSI)
100
AcDbSpline
210
0.0
220
0.0
230
1.0
 70
     8
 71
     2
 72
     7
 73
     4
 74
     0
 42
0.000000001
 43
0.0000000001
 40
0.0
 40
0.0
 40
0.0
 40
1.0
 40
2.0
 40
2.0
 40
2.0
 10
96.95111079527151
 20
204.0838958329227
 30
0.0
 10
97.23111079050312
 20
204.3238958288355
 30
0.0
 10
97.64253935492511
 20
204.4810386833022
 30
0.0
 10
97.81682506624276
 20
204.4810386833022
 30
0.0
  0
SPLINE
  5
119
330
71
100
AcDbEntity
  8
Visible (ANSI)
100
AcDbSpline
210
0.0
220
0.0
230
1.0
 70
     8
 71
     2
 72
     7
 73
     4
 74
     0
 42
0.000000001
 43
0.0000000001
 40
0.0
 40
0.0
 40
0.0
 40
1.0
 40
2.0
 40
2.0
 40
2.0
 10
97.81682506624276
 20
204.4810386833022
 30
0.0
 10
97.86253935117855
 20
204.4810386833022
 30
0.0
 10
97.97396792070948
 20
204.4753243976852
 30
0.0
 10
98.01682506283677
 20
204.4724672548768
 30
0.0
  0
LINE
  5
11A
330
71
100
AcDbEntity
  8
Visible (ANSI)
100
AcDbLine
 10
98.01682506283677
 20
204.4724672548768
 30
0.0
 11
98.01682506283677
 21
203.6667529828837
 31
0.0
  0
LINE
  5
11B
330
71
100
AcDbEntity
  8
Visible (ANSI)
100
AcDbLine
 10
79.88539680018459
 20
203.6667529828837
 30
0.0
 11
79.81111108716397
 21
203.6667529828837
 31
0.0
  0
SPLINE
  5
11C
330
71
100
AcDbEntity
  8
Visible (ANSI)
100
AcDbSpline
210
0.0
220
0.0
230
1.0
 70
     8
 71
     2
 72
     7
 73
     4
 74
     0
 42
0.000000001
 43
0.0000000001
 40
0.0
 40
0.0
 40
0.0
 40
1.0
 40
2.0
 40
2.0
 40
2.0
 10
79.81111108716397
 20
203.6667529828837
 30
0.0
 10
79.75682537380272
 20
203.6867529825431
 30
0.0
 10
79.5168253778899
 20
203.703895839394
 30
0.0
 10
79.4368253792523
 20
203.703895839394
 30
0.0
  0
SPLINE
  5
11D
330
71
100
AcDbEntity
  8
Visible (ANSI)
100
AcDbSpline
210
0.0
220
0.0
230
1.0
 70
     8
 71
     2
 72
     7
 73
     4
 74
     0
 42
0.000000001
 43
0.0000000001
 40
0.0
 40
0.0
 40
0.0
 40
1.0
 40
2.0
 40
2.0
 40
2.0
 10
79.4368253792523
 20
203.703895839394
 30
0.0
 10
79.25682538231767
 20
203.703895839394
 30
0.0
 10
78.97968252989454
 20
203.6581815544582
 30
0.0
 10
78.81968253261932
 20
203.6010386982886
 30
0.0
  0
LINE
  5
11E
330
71
100
AcDbEntity
  8
Visible (ANSI)
100
AcDbLine
 10
78.81968253261932
 20
203.6010386982886
 30
0.0
 11
78.81968253261932
 21
201.8324672998357
 31
0.0
  0
LINE
  5
11F
330
71
100
AcDbEntity
  8
Visible (ANSI)
100
AcDbLine
 10
78.81968253261932
 20
201.8324672998357
 30
0.0
 11
77.97111111849898
 21
201.8324672998357
 31
0.0
  0
LINE
  5
120
330
71
100
AcDbEntity
  8
Visible (ANSI)
100
AcDbLine
 10
77.97111111849898
 20
201.8324672998357
 30
0.0
 11
77.97111111849898
 21
204.4724672548768
 31
0.0
  0
LINE
  5
121
330
71
100
AcDbEntity
  8
Visible (ANSI)
100
AcDbLine
 10
77.97111111849898
 20
204.4724672548768
 30
0.0
 11
78.81968253261932
 21
204.4724672548768
 31
0.0
  0
LINE
  5
122
330
71
100
AcDbEntity
  8
Visible (ANSI)
100
AcDbLine
 10
78.81968253261932
 20
204.4724672548768
 30
0.0
 11
78.81968253261932
 21
204.0838958329227
 31
0.0
  0
SPLINE
  5
123
330
71
100
AcDbEntity
  8
Visible (ANSI)
100
AcDbSpline
210
0.0
220
0.0
230
1.0
 70
     8
 71
     2
 72
     7
 73
     4
 74
     0
 42
0.000000001
 43
0.0000000001
 40
0.0
 40
0.0
 40
0.0
 40
1.0
 40
2.0
 40
2.0
 40
2.0
 10
78.81968253261932
 20
204.0838958329227
 30
0.0
 10
79.09968252785095
 20
204.3238958288355
 30
0.0
 10
79.51111109227293
 20
204.4810386833022
 30
0.0
 10
79.68539680359057
 20
204.4810386833022
 30
0.0
  0
SPLINE
  5
124
330
71
100
AcDbEntity
  8
Visible (ANSI)
100
AcDbSpline
210
0.0
220
0.0
230
1.0
 70
     8
 71
     2
 72
     7
 73
     4
 74
     0
 42
0.000000001
 43
0.0000000001
 40
0.0
 40
0.0
 40
0.0
 40
1.0
 40
2.0
 40
2.0
 40
2.0
 10
79.68539680359057
 20
204.4810386833022
 30
0.0
 10
79.73111108852636
 20
204.4810386833022
 30
0.0
 10
79.84253965805732
 20
204.4753243976852
 30
0.0
 10
79.88539680018459
 20
204.4724672548768
 30
0.0
  0
LINE
  5
125
330
71
100
AcDbEntity
  8
Visible (ANSI)
100
AcDbLine
 10
79.88539680018459
 20
204.4724672548768
 30
0.0
 11
79.88539680018459
 21
203.6667529828837
 31
0.0
  0
SPLINE
  5
126
330
71
100
AcDbEntity
  8
Visible (ANSI)
100
AcDbSpline
210
0.0
220
0.0
230
1.0
 70
     8
 71
     2
 72
     7
 73
     4
 74
     0
 42
0.000000001
 43
0.0000000001
 40
0.0
 40
0.0
 40
0.0
 40
1.0
 40
2.0
 40
2.0
 40
2.0
 10
83.06539674602952
 20
203.1524672773562
 30
0.0
 10
83.06539674602952
 20
202.5010387170214
 30
0.0
 10
82.30539675897224
 20
201.7496101583896
 30
0.0
 10
81.61968248493559
 20
201.7496101583896
 30
0.0
  0
SPLINE
  5
127
330
71
100
AcDbEntity
  8
Visible (ANSI)
100
AcDbSpline
210
0.0
220
0.0
230
1.0
 70
     8
 71
     2
 72
     7
 73
     4
 74
     0
 42
0.000000001
 43
0.0000000001
 40
0.0
 40
0.0
 40
0.0
 40
1.0
 40
2.0
 40
2.0
 40
2.0
 10
81.61968248493559
 20
201.7496101583896
 30
0.0
 10
80.93111106809047
 20
201.7496101583896
 30
0.0
 10
80.17111108103319
 20
202.5010387170214
 30
0.0
 10
80.17111108103319
 20
203.1524672773562
 30
0.0
  0
SPLINE
  5
128
330
71
100
AcDbEntity
  8
Visible (ANSI)
100
AcDbSpline
210
0.0
220
0.0
230
1.0
 70
     8
 71
     2
 72
     7
 73
     4
 74
     0
 42
0.000000001
 43
0.0000000001
 40
0.0
 40
0.0
 40
0.0
 40
1.0
 40
2.0
 40
2.0
 40
2.0
 10
80.17111108103319
 20
203.1524672773562
 30
0.0
 10
80.17111108103319
 20
203.8067529804995
 30
0.0
 10
80.93682535370744
 20
204.5553243963229
 30
0.0
 10
81.61968248493559
 20
204.5553243963229
 30
0.0
  0
SPLINE
  5
129
330
71
100
AcDbEntity
  8
Visible (ANSI)
100
AcDbSpline
210
0.0
220
0.0
230
1.0
 70
     8
 71
     2
 72
     7
 73
     4
 74
     0
 42
0.000000001
 43
0.0000000001
 40
0.0
 40
0.0
 40
0.0
 40
1.0
 40
2.0
 40
2.0
 40
2.0
 10
81.61968248493559
 20
204.5553243963229
 30
0.0
 10
82.31111104458921
 20
204.5553243963229
 30
0.0
 10
83.06539674602952
 20
203.803895837691
 30
0.0
 10
83.06539674602952
 20
203.1524672773562
 30
0.0
  0
SPLINE
  5
12A
330
71
100
AcDbEntity
  8
Visible (ANSI)
100
AcDbSpline
210
0.0
220
0.0
230
1.0
 70
     8
 71
     2
 72
     7
 73
     4
 74
     0
 42
0.000000001
 43
0.0000000001
 40
0.0
 40
0.0
 40
0.0
 40
1.0
 40
2.0
 40
2.0
 40
2.0
 10
86.42539668880905
 20
203.1896101338666
 30
0.0
 10
86.42539668880905
 20
202.5667530016166
 30
0.0
 10
85.73682527196394
 20
201.7810387292829
 30
0.0
 10
85.22253956643645
 20
201.7810387292829
 30
0.0
  0
SPLINE
  5
12B
330
71
100
AcDbEntity
  8
Visible (ANSI)
100
AcDbSpline
210
0.0
220
0.0
230
1.0
 70
     8
 71
     2
 72
     7
 73
     4
 74
     0
 42
0.000000001
 43
0.0000000001
 40
0.0
 40
0.0
 40
0.0
 40
1.0
 40
2.0
 40
2.0
 40
2.0
 10
85.22253956643645
 20
201.7810387292829
 30
0.0
 10
85.00253957018303
 20
201.7810387292829
 30
0.0
 10
84.67111100439865
 20
201.875324441963
 30
0.0
 10
84.51968243554889
 20
201.963895869026
 30
0.0
  0
LINE
  5
12C
330
71
100
AcDbEntity
  8
Visible (ANSI)
100
AcDbLine
 10
84.51968243554889
 20
201.963895869026
 30
0.0
 11
84.48539672184706
 21
201.8324672998357
 31
0.0
  0
LINE
  5
12D
330
71
100
AcDbEntity
  8
Visible (ANSI)
100
AcDbLine
 10
84.48539672184706
 20
201.8324672998357
 30
0.0
 11
83.67111102142855
 21
201.8324672998357
 31
0.0
  0
LINE
  5
12E
330
71
100
AcDbEntity
  8
Visible (ANSI)
100
AcDbLine
 10
83.67111102142855
 20
201.8324672998357
 30
0.0
 11
83.67111102142855
 21
205.4896100946978
 31
0.0
  0
LINE
  5
12F
330
71
100
AcDbEntity
  8
Visible (ANSI)
100
AcDbLine
 10
83.67111102142855
 20
205.4896100946978
 30
0.0
 11
84.51968243554889
 21
205.4896100946978
 31
0.0
  0
LINE
  5
130
330
71
100
AcDbEntity
  8
Visible (ANSI)
100
AcDbLine
 10
84.51968243554889
 20
205.4896100946978
 30
0.0
 11
84.51968243554889
 21
204.1953244024536
 31
0.0
  0
SPLINE
  5
131
330
71
100
AcDbEntity
  8
Visible (ANSI)
100
AcDbSpline
210
0.0
220
0.0
230
1.0
 70
     8
 71
     2
 72
     7
 73
     4
 74
     0
 42
0.000000001
 43
0.0000000001
 40
0.0
 40
0.0
 40
0.0
 40
1.0
 40
2.0
 40
2.0
 40
2.0
 10
84.51968243554889
 20
204.1953244024536
 30
0.0
 10
84.71396814652594
 20
204.3524672569204
 30
0.0
 10
85.11968242533095
 20
204.5438958250889
 30
0.0
 10
85.38539670652015
 20
204.5438958250889
 30
0.0
  0
SPLINE
  5
132
330
71
100
AcDbEntity
  8
Visible (ANSI)
100
AcDbSpline
210
0.0
220
0.0
230
1.0
 70
     8
 71
     2
 72
     7
 73
     4
 74
     0
 42
0.000000001
 43
0.0000000001
 40
0.0
 40
0.0
 40
0.0
 40
1.0
 40
2.0
 40
2.0
 40
2.0
 10
85.38539670652015
 20
204.5438958250889
 30
0.0
 10
85.88539669800519
 20
204.5438958250889
 30
0.0
 10
86.42539668880905
 20
203.8238958373504
 30
0.0
 10
86.42539668880905
 20
203.1896101338666
 30
0.0
  0
SPLINE
  5
133
330
71
100
AcDbEntity
  8
Visible (ANSI)
100
AcDbSpline
210
0.0
220
0.0
230
1.0
 70
     8
 71
     2
 72
     7
 73
     4
 74
     0
 42
0.000000001
 43
0.0000000001
 40
0.0
 40
0.0
 40
0.0
 40
1.0
 40
2.0
 40
2.0
 40
2.0
 10
89.73682520384434
 20
203.1524672773562
 30
0.0
 10
89.73682520384434
 20
202.5010387170214
 30
0.0
 10
88.97682521678706
 20
201.7496101583896
 30
0.0
 10
88.29111094275042
 20
201.7496101583896
 30
0.0
  0
SPLINE
  5
134
330
71
100
AcDbEntity
  8
Visible (ANSI)
100
AcDbSpline
210
0.0
220
0.0
230
1.0
 70
     8
 71
     2
 72
     7
 73
     4
 74
     0
 42
0.000000001
 43
0.0000000001
 40
0.0
 40
0.0
 40
0.0
 40
1.0
 40
2.0
 40
2.0
 40
2.0
 10
88.29111094275042
 20
201.7496101583896
 30
0.0
 10
87.60253952590529
 20
201.7496101583896
 30
0.0
 10
86.84253953884804
 20
202.5010387170214
 30
0.0
 10
86.84253953884804
 20
203.1524672773562
 30
0.0
  0
SPLINE
  5
135
330
71
100
AcDbEntity
  8
Visible (ANSI)
100
AcDbSpline
210
0.0
220
0.0
230
1.0
 70
     8
 71
     2
 72
     7
 73
     4
 74
     0
 42
0.000000001
 43
0.0000000001
 40
0.0
 40
0.0
 40
0.0
 40
1.0
 40
2.0
 40
2.0
 40
2.0
 10
86.84253953884804
 20
203.1524672773562
 30
0.0
 10
86.84253953884804
 20
203.8067529804995
 30
0.0
 10
87.60825381152228
 20
204.5553243963229
 30
0.0
 10
88.29111094275042
 20
204.5553243963229
 30
0.0
  0
SPLINE
  5
136
330
71
100
AcDbEntity
  8
Visible (ANSI)
100
AcDbSpline
210
0.0
220
0.0
230
1.0
 70
     8
 71
     2
 72
     7
 73
     4
 74
     0
 42
0.000000001
 43
0.0000000001
 40
0.0
 40
0.0
 40
0.0
 40
1.0
 40
2.0
 40
2.0
 40
2.0
 10
88.29111094275042
 20
204.5553243963229
 30
0.0
 10
88.98253950240404
 20
204.5553243963229
 30
0.0
 10
89.73682520384434
 20
203.803895837691
 30
0.0
 10
89.73682520384434
 20
203.1524672773562
 30
0.0
  0
SPLINE
  5
137
330
71
100
AcDbEntity
  8
Visible (ANSI)
100
AcDbSpline
210
0.0
220
0.0
230
1.0
 70
     8
 71
     2
 72
     7
 73
     4
 74
     0
 42
0.000000001
 43
0.0000000001
 40
0.0
 40
0.0
 40
0.0
 40
1.0
 40
2.0
 40
2.0
 40
2.0
 10
93.09682514662387
 20
203.1896101338666
 30
0.0
 10
93.09682514662387
 20
202.5667530016166
 30
0.0
 10
92.40825372977875
 20
201.7810387292829
 30
0.0
 10
91.89396802425127
 20
201.7810387292829
 30
0.0
  0
SPLINE
  5
138
330
71
100
AcDbEntity
  8
Visible (ANSI)
100
AcDbSpline
210
0.0
220
0.0
230
1.0
 70
     8
 71
     2
 72
     7
 73
     4
 74
     0
 42
0.000000001
 43
0.0000000001
 40
0.0
 40
0.0
 40
0.0
 40
1.0
 40
2.0
 40
2.0
 40
2.0
 10
91.89396802425127
 20
201.7810387292829
 30
0.0
 10
91.67396802799784
 20
201.7810387292829
 30
0.0
 10
91.34253946221347
 20
201.875324441963
 30
0.0
 10
91.19111089336371
 20
201.963895869026
 30
0.0
  0
LINE
  5
139
330
71
100
AcDbEntity
  8
Visible (ANSI)
100
AcDbLine
 10
91.19111089336371
 20
201.963895869026
 30
0.0
 11
91.1568251796619
 21
201.8324672998357
 31
0.0
  0
LINE
  5
13A
330
71
100
AcDbEntity
  8
Visible (ANSI)
100
AcDbLine
 10
91.1568251796619
 20
201.8324672998357
 30
0.0
 11
90.34253947924339
 21
201.8324672998357
 31
0.0
  0
LINE
  5
13B
330
71
100
AcDbEntity
  8
Visible (ANSI)
100
AcDbLine
 10
90.34253947924339
 20
201.8324672998357
 30
0.0
 11
90.34253947924339
 21
205.4896100946978
 31
0.0
  0
LINE
  5
13C
330
71
100
AcDbEntity
  8
Visible (ANSI)
100
AcDbLine
 10
90.34253947924339
 20
205.4896100946978
 30
0.0
 11
91.19111089336371
 21
205.4896100946978
 31
0.0
  0
LINE
  5
13D
330
71
100
AcDbEntity
  8
Visible (ANSI)
100
AcDbLine
 10
91.19111089336371
 20
205.4896100946978
 30
0.0
 11
91.19111089336371
 21
204.1953244024536
 31
0.0
  0
SPLINE
  5
13E
330
71
100
AcDbEntity
  8
Visible (ANSI)
100
AcDbSpline
210
0.0
220
0.0
230
1.0
 70
     8
 71
     2
 72
     7
 73
     4
 74
     0
 42
0.000000001
 43
0.0000000001
 40
0.0
 40
0.0
 40
0.0
 40
1.0
 40
2.0
 40
2.0
 40
2.0
 10
91.19111089336371
 20
204.1953244024536
 30
0.0
 10
91.38539660434076
 20
204.3524672569204
 30
0.0
 10
91.79111088314577
 20
204.5438958250889
 30
0.0
 10
92.05682516433498
 20
204.5438958250889
 30
0.0
  0
SPLINE
  5
13F
330
71
100
AcDbEntity
  8
Visible (ANSI)
100
AcDbSpline
210
0.0
220
0.0
230
1.0
 70
     8
 71
     2
 72
     7
 73
     4
 74
     0
 42
0.000000001
 43
0.0000000001
 40
0.0
 40
0.0
 40
0.0
 40
1.0
 40
2.0
 40
2.0
 40
2.0
 10
92.05682516433498
 20
204.5438958250889
 30
0.0
 10
92.55682515582002
 20
204.5438958250889
 30
0.0
 10
93.09682514662387
 20
203.8238958373504
 30
0.0
 10
93.09682514662387
 20
203.1896101338666
 30
0.0
  0
LINE
  5
140
330
71
100
AcDbEntity
  8
Visible (ANSI)
100
AcDbLine
 10
95.62253938932551
 20
203.6667529828837
 30
0.0
 11
95.54825367630487
 21
203.6667529828837
 31
0.0
  0
SPLINE
  5
141
330
71
100
AcDbEntity
  8
Visible (ANSI)
100
AcDbSpline
210
0.0
220
0.0
230
1.0
 70
     8
 71
     2
 72
     7
 73
     4
 74
     0
 42
0.000000001
 43
0.0000000001
 40
0.0
 40
0.0
 40
0.0
 40
1.0
 40
2.0
 40
2.0
 40
2.0
 10
95.54825367630487
 20
203.6667529828837
 30
0.0
 10
95.49396796294363
 20
203.6867529825431
 30
0.0
 10
95.25396796703081
 20
203.703895839394
 30
0.0
 10
95.17396796839319
 20
203.703895839394
 30
0.0
  0
SPLINE
  5
142
330
71
100
AcDbEntity
  8
Visible (ANSI)
100
AcDbSpline
210
0.0
220
0.0
230
1.0
 70
     8
 71
     2
 72
     7
 73
     4
 74
     0
 42
0.000000001
 43
0.0000000001
 40
0.0
 40
0.0
 40
0.0
 40
1.0
 40
2.0
 40
2.0
 40
2.0
 10
95.17396796839319
 20
203.703895839394
 30
0.0
 10
94.99396797145861
 20
203.703895839394
 30
0.0
 10
94.71682511903544
 20
203.6581815544582
 30
0.0
 10
94.55682512176023
 20
203.6010386982886
 30
0.0
  0
LINE
  5
143
330
71
100
AcDbEntity
  8
Visible (ANSI)
100
AcDbLine
 10
94.55682512176023
 20
203.6010386982886
 30
0.0
 11
94.55682512176023
 21
201.8324672998357
 31
0.0
  0
LINE
  5
144
330
71
100
AcDbEntity
  8
Visible (ANSI)
100
AcDbLine
 10
94.55682512176023
 20
201.8324672998357
 30
0.0
 11
93.70825370763988
 21
201.8324672998357
 31
0.0
  0
LINE
  5
145
330
71
100
AcDbEntity
  8
Visible (ANSI)
100
AcDbLine
 10
93.70825370763988
 20
201.8324672998357
 30
0.0
 11
93.70825370763988
 21
204.4724672548768
 31
0.0
  0
LINE
  5
146
330
71
100
AcDbEntity
  8
Visible (ANSI)
100
AcDbLine
 10
93.70825370763988
 20
204.4724672548768
 30
0.0
 11
94.55682512176023
 21
204.4724672548768
 31
0.0
  0
LINE
  5
147
330
71
100
AcDbEntity
  8
Visible (ANSI)
100
AcDbLine
 10
94.55682512176023
 20
204.4724672548768
 30
0.0
 11
94.55682512176023
 21
204.0838958329227
 31
0.0
  0
SPLINE
  5
148
330
71
100
AcDbEntity
  8
Visible (ANSI)
100
AcDbSpline
210
0.0
220
0.0
230
1.0
 70
     8
 71
     2
 72
     7
 73
     4
 74
     0
 42
0.000000001
 43
0.0000000001
 40
0.0
 40
0.0
 40
0.0
 40
1.0
 40
2.0
 40
2.0
 40
2.0
 10
94.55682512176023
 20
204.0838958329227
 30
0.0
 10
94.83682511699186
 20
204.3238958288355
 30
0.0
 10
95.24825368141383
 20
204.4810386833022
 30
0.0
 10
95.4225393927315
 20
204.4810386833022
 30
0.0
  0
SPLINE
  5
149
330
71
100
AcDbEntity
  8
Visible (ANSI)
100
AcDbSpline
210
0.0
220
0.0
230
1.0
 70
     8
 71
     2
 72
     7
 73
     4
 74
     0
 42
0.000000001
 43
0.0000000001
 40
0.0
 40
0.0
 40
0.0
 40
1.0
 40
2.0
 40
2.0
 40
2.0
 10
95.4225393927315
 20
204.4810386833022
 30
0.0
 10
95.46825367766727
 20
204.4810386833022
 30
0.0
 10
95.57968224719822
 20
204.4753243976852
 30
0.0
 10
95.62253938932551
 20
204.4724672548768
 30
0.0
  0
LINE
  5
14A
330
71
100
AcDbEntity
  8
Visible (ANSI)
100
AcDbLine
 10
95.62253938932551
 20
204.4724672548768
 30
0.0
 11
95.62253938932551
 21
203.6667529828837
 31
0.0
  0
LINE
  5
14B
330
71
100
AcDbEntity
  8
Visible (ANSI)
100
AcDbLine
 10
101.0625392966828
 20
201.8324672998357
 30
0.0
 11
100.2139678825625
 21
201.8324672998357
 31
0.0
  0
LINE
  5
14C
330
71
100
AcDbEntity
  8
Visible (ANSI)
100
AcDbLine
 10
100.2139678825625
 20
201.8324672998357
 30
0.0
 11
100.2139678825625
 21
202.1067530094504
 31
0.0
  0
SPLINE
  5
14D
330
71
100
AcDbEntity
  8
Visible (ANSI)
100
AcDbSpline
210
0.0
220
0.0
230
1.0
 70
     8
 71
     2
 72
     7
 73
     4
 74
     0
 42
0.000000001
 43
0.0000000001
 40
0.0
 40
0.0
 40
0.0
 40
1.0
 40
2.0
 40
2.0
 40
2.0
 10
100.2139678825625
 20
202.1067530094504
 30
0.0
 10
99.9968250291176
 20
201.9296101553242
 30
0.0
 10
99.61682503558893
 20
201.7581815868151
 30
0.0
 10
99.36539646844217
 20
201.7581815868151
 30
0.0
  0
SPLINE
  5
14E
330
71
100
AcDbEntity
  8
Visible (ANSI)
100
AcDbSpline
210
0.0
220
0.0
230
1.0
 70
     8
 71
     2
 72
     7
 73
     4
 74
     0
 42
0.000000001
 43
0.0000000001
 40
0.0
 40
0.0
 40
0.0
 40
1.0
 40
2.0
 40
2.0
 40
2.0
 10
99.36539646844217
 20
201.7581815868151
 30
0.0
 10
98.88539647661652
 20
201.7581815868151
 30
0.0
 10
98.30825362930234
 20
202.5010387170214
 30
0.0
 10
98.30825362930234
 20
203.1324672776968
 30
0.0
  0
SPLINE
  5
14F
330
71
100
AcDbEntity
  8
Visible (ANSI)
100
AcDbSpline
210
0.0
220
0.0
230
1.0
 70
     8
 71
     2
 72
     7
 73
     4
 74
     0
 42
0.000000001
 43
0.0000000001
 40
0.0
 40
0.0
 40
0.0
 40
1.0
 40
2.0
 40
2.0
 40
2.0
 10
98.30825362930234
 20
203.1324672776968
 30
0.0
 10
98.30825362930234
 20
203.4667529862897
 30
0.0
 10
98.50253934027939
 20
203.9867529774341
 30
0.0
 10
98.67111076598007
 20
204.1724672599857
 30
0.0
  0
SPLINE
  5
150
330
71
100
AcDbEntity
  8
Visible (ANSI)
100
AcDbSpline
210
0.0
220
0.0
230
1.0
 70
     8
 71
     2
 72
     7
 73
     4
 74
     0
 42
0.000000001
 43
0.0000000001
 40
0.0
 40
0.0
 40
0.0
 40
1.0
 40
2.0
 40
2.0
 40
2.0
 10
98.67111076598007
 20
204.1724672599857
 30
0.0
 10
98.83111076325528
 20
204.3496101141119
 30
0.0
 10
99.28825361261305
 20
204.5438958250889
 30
0.0
 10
99.51396789448345
 20
204.5438958250889
 30
0.0
  0
SPLINE
  5
151
330
71
100
AcDbEntity
  8
Visible (ANSI)
100
AcDbSpline
210
0.0
220
0.0
230
1.0
 70
     8
 71
     2
 72
     7
 73
     4
 74
     0
 42
0.000000001
 43
0.0000000001
 40
0.0
 40
0.0
 40
0.0
 40
1.0
 40
2.0
 40
2.0
 40
2.0
 10
99.51396789448345
 20
204.5438958250889
 30
0.0
 10
99.75111074758778
 20
204.5438958250889
 30
0.0
 10
100.0539678852873
 20
204.4438958267919
 30
0.0
 10
100.2139678825625
 20
204.3638958281543
 30
0.0
  0
LINE
  5
152
330
71
100
AcDbEntity
  8
Visible (ANSI)
100
AcDbLine
 10
100.2139678825625
 20
204.3638958281543
 30
0.0
 11
100.2139678825625
 21
205.4896100946978
 31
0.0
  0
LINE
  5
153
330
71
100
AcDbEntity
  8
Visible (ANSI)
100
AcDbLine
 10
100.2139678825625
 20
205.4896100946978
 30
0.0
 11
101.0625392966828
 21
205.4896100946978
 31
0.0
  0
LINE
  5
154
330
71
100
AcDbEntity
  8
Visible (ANSI)
100
AcDbLine
 10
101.0625392966828
 20
205.4896100946978
 30
0.0
 11
101.0625392966828
 21
201.8324672998357
 31
0.0
  0
LINE
  5
155
330
71
100
AcDbEntity
  8
Visible (ANSI)
100
AcDbLine
 10
102.7739678389659
 20
201.8324672998357
 30
0.0
 11
101.8939678539523
 21
201.8324672998357
 31
0.0
  0
LINE
  5
156
330
71
100
AcDbEntity
  8
Visible (ANSI)
100
AcDbLine
 10
101.8939678539523
 20
201.8324672998357
 30
0.0
 11
101.8939678539523
 21
202.7553244269767
 31
0.0
  0
LINE
  5
157
330
71
100
AcDbEntity
  8
Visible (ANSI)
100
AcDbLine
 10
101.8939678539523
 20
202.7553244269767
 30
0.0
 11
102.7739678389659
 21
202.7553244269767
 31
0.0
  0
LINE
  5
158
330
71
100
AcDbEntity
  8
Visible (ANSI)
100
AcDbLine
 10
102.7739678389659
 20
202.7553244269767
 30
0.0
 11
102.7739678389659
 21
201.8324672998357
 31
0.0
  0
SPLINE
  5
159
330
71
100
AcDbEntity
  8
Visible (ANSI)
100
AcDbSpline
210
0.0
220
0.0
230
1.0
 70
     8
 71
     2
 72
     7
 73
     4
 74
     0
 42
0.000000001
 43
0.0000000001
 40
0.0
 40
0.0
 40
0.0
 40
1.0
 40
2.0
 40
2.0
 40
2.0
 10
109.1339677306558
 20
203.1524672773562
 30
0.0
 10
109.1339677306558
 20
202.5010387170214
 30
0.0
 10
108.3739677435985
 20
201.7496101583896
 30
0.0
 10
107.6882534695619
 20
201.7496101583896
 30
0.0
  0
SPLINE
  5
15A
330
71
100
AcDbEntity
  8
Visible (ANSI)
100
AcDbSpline
210
0.0
220
0.0
230
1.0
 70
     8
 71
     2
 72
     7
 73
     4
 74
     0
 42
0.000000001
 43
0.0000000001
 40
0.0
 40
0.0
 40
0.0
 40
1.0
 40
2.0
 40
2.0
 40
2.0
 10
107.6882534695619
 20
201.7496101583896
 30
0.0
 10
106.9996820527167
 20
201.7496101583896
 30
0.0
 10
106.2396820656595
 20
202.5010387170214
 30
0.0
 10
106.2396820656595
 20
203.1524672773562
 30
0.0
  0
SPLINE
  5
15B
330
71
100
AcDbEntity
  8
Visible (ANSI)
100
AcDbSpline
210
0.0
220
0.0
230
1.0
 70
     8
 71
     2
 72
     7
 73
     4
 74
     0
 42
0.000000001
 43
0.0000000001
 40
0.0
 40
0.0
 40
0.0
 40
1.0
 40
2.0
 40
2.0
 40
2.0
 10
106.2396820656595
 20
203.1524672773562
 30
0.0
 10
106.2396820656595
 20
203.8067529804995
 30
0.0
 10
107.0053963383337
 20
204.5553243963229
 30
0.0
 10
107.6882534695619
 20
204.5553243963229
 30
0.0
  0
SPLINE
  5
15C
330
71
100
AcDbEntity
  8
Visible (ANSI)
100
AcDbSpline
210
0.0
220
0.0
230
1.0
 70
     8
 71
     2
 72
     7
 73
     4
 74
     0
 42
0.000000001
 43
0.0000000001
 40
0.0
 40
0.0
 40
0.0
 40
1.0
 40
2.0
 40
2.0
 40
2.0
 10
107.6882534695619
 20
204.5553243963229
 30
0.0
 10
108.3796820292155
 20
204.5553243963229
 30
0.0
 10
109.1339677306558
 20
203.803895837691
 30
0.0
 10
109.1339677306558
 20
203.1524672773562
 30
0.0
  0
LINE
  5
15D
330
71
100
AcDbEntity
  8
Visible (ANSI)
100
AcDbLine
 10
112.3168248193092
 20
203.703895839394
 30
0.0
 11
112.3168248193092
 21
201.8324672998357
 31
0.0
  0
LINE
  5
15E
330
71
100
AcDbEntity
  8
Visible (ANSI)
100
AcDbLine
 10
112.3168248193092
 20
201.8324672998357
 30
0.0
 11
111.4682534051889
 21
201.8324672998357
 31
0.0
  0
LINE
  5
15F
330
71
100
AcDbEntity
  8
Visible (ANSI)
100
AcDbLine
 10
111.4682534051889
 20
201.8324672998357
 30
0.0
 11
111.4682534051889
 21
203.1524672773562
 31
0.0
  0
SPLINE
  5
160
330
71
100
AcDbEntity
  8
Visible (ANSI)
100
AcDbSpline
210
0.0
220
0.0
230
1.0
 70
     8
 71
     2
 72
     7
 73
     4
 74
     0
 42
0.000000001
 43
0.0000000001
 40
0.0
 40
0.0
 40
0.0
 40
1.0
 40
2.0
 40
2.0
 40
2.0
 10
111.4682534051889
 20
203.1524672773562
 30
0.0
 10
111.4682534051889
 20
203.3438958455248
 30
0.0
 10
111.4482534055295
 20
203.615324412331
 30
0.0
 10
111.4082534062106
 20
203.6981815537771
 30
0.0
  0
SPLINE
  5
161
330
71
100
AcDbEntity
  8
Visible (ANSI)
100
AcDbSpline
210
0.0
220
0.0
230
1.0
 70
     8
 71
     2
 72
     7
 73
     4
 74
     0
 42
0.000000001
 43
0.0000000001
 40
0.0
 40
0.0
 40
0.0
 40
1.0
 40
2.0
 40
2.0
 40
2.0
 10
111.4082534062106
 20
203.6981815537771
 30
0.0
 10
111.3653962640834
 20
203.7838958380316
 30
0.0
 10
111.1939676955742
 20
203.8610386938608
 30
0.0
 10
111.039681983916
 20
203.8610386938608
 30
0.0
  0
SPLINE
  5
162
330
71
100
AcDbEntity
  8
Visible (ANSI)
100
AcDbSpline
210
0.0
220
0.0
230
1.0
 70
     8
 71
     2
 72
     7
 73
     4
 74
     0
 42
0.000000001
 43
0.0000000001
 40
0.0
 40
0.0
 40
0.0
 40
1.0
 40
2.0
 40
2.0
 40
2.0
 10
111.039681983916
 20
203.8610386938608
 30
0.0
 10
110.9139677003426
 20
203.8610386938608
 30
0.0
 10
110.6796819900467
 20
203.7610386955637
 30
0.0
 10
110.5853962773667
 20
203.703895839394
 30
0.0
  0
LINE
  5
163
330
71
100
AcDbEntity
  8
Visible (ANSI)
100
AcDbLine
 10
110.5853962773667
 20
203.703895839394
 30
0.0
 11
110.5853962773667
 21
201.8324672998357
 31
0.0
  0
LINE
  5
164
330
71
100
AcDbEntity
  8
Visible (ANSI)
100
AcDbLine
 10
110.5853962773667
 20
201.8324672998357
 30
0.0
 11
109.7368248632463
 21
201.8324672998357
 31
0.0
  0
LINE
  5
165
330
71
100
AcDbEntity
  8
Visible (ANSI)
100
AcDbLine
 10
109.7368248632463
 20
201.8324672998357
 30
0.0
 11
109.7368248632463
 21
204.4724672548768
 31
0.0
  0
LINE
  5
166
330
71
100
AcDbEntity
  8
Visible (ANSI)
100
AcDbLine
 10
109.7368248632463
 20
204.4724672548768
 30
0.0
 11
110.5853962773667
 21
204.4724672548768
 31
0.0
  0
LINE
  5
167
330
71
100
AcDbEntity
  8
Visible (ANSI)
100
AcDbLine
 10
110.5853962773667
 20
204.4724672548768
 30
0.0
 11
110.5853962773667
 21
204.1810386884112
 31
0.0
  0
SPLINE
  5
168
330
71
100
AcDbEntity
  8
Visible (ANSI)
100
AcDbSpline
210
0.0
220
0.0
230
1.0
 70
     8
 71
     2
 72
     7
 73
     4
 74
     0
 42
0.000000001
 43
0.0000000001
 40
0.0
 40
0.0
 40
0.0
 40
1.0
 40
2.0
 40
2.0
 40
2.0
 10
110.5853962773667
 20
204.1810386884112
 30
0.0
 10
110.8025391308116
 20
204.3524672569204
 30
0.0
 10
111.2025391239997
 20
204.5438958250889
 30
0.0
 10
111.445396262721
 20
204.5438958250889
 30
0.0
  0
SPLINE
  5
169
330
71
100
AcDbEntity
  8
Visible (ANSI)
100
AcDbSpline
210
0.0
220
0.0
230
1.0
 70
     8
 71
     2
 72
     7
 73
     4
 74
     0
 42
0.000000001
 43
0.0000000001
 40
0.0
 40
0.0
 40
0.0
 40
1.0
 40
2.0
 40
2.0
 40
2.0
 10
111.445396262721
 20
204.5438958250889
 30
0.0
 10
111.7053962582932
 20
204.5438958250889
 30
0.0
 10
112.1025391086728
 20
204.3124672576015
 30
0.0
 10
112.2168248210122
 20
204.0867529757311
 30
0.0
  0
SPLINE
  5
16A
330
71
100
AcDbEntity
  8
Visible (ANSI)
100
AcDbSpline
210
0.0
220
0.0
230
1.0
 70
     8
 71
     2
 72
     7
 73
     4
 74
     0
 42
0.000000001
 43
0.0000000001
 40
0.0
 40
0.0
 40
0.0
 40
1.0
 40
2.0
 40
2.0
 40
2.0
 10
112.2168248210122
 20
204.0867529757311
 30
0.0
 10
112.468253388159
 20
204.2981815435591
 30
0.0
 10
112.9482533799846
 20
204.5438958250889
 30
0.0
 10
113.1768248046635
 20
204.5438958250889
 30
0.0
  0
SPLINE
  5
16B
330
71
100
AcDbEntity
  8
Visible (ANSI)
100
AcDbSpline
210
0.0
220
0.0
230
1.0
 70
     8
 71
     2
 72
     7
 73
     4
 74
     0
 42
0.000000001
 43
0.0000000001
 40
0.0
 40
0.0
 40
0.0
 40
1.0
 40
2.0
 40
2.0
 40
2.0
 10
113.1768248046635
 20
204.5438958250889
 30
0.0
 10
113.6053962259364
 20
204.5438958250889
 30
0.0
 10
114.0482533612517
 20
204.0324672623699
 30
0.0
 10
114.0482533612517
 20
203.5496101277358
 30
0.0
  0
LINE
  5
16C
330
71
100
AcDbEntity
  8
Visible (ANSI)
100
AcDbLine
 10
114.0482533612517
 20
203.5496101277358
 30
0.0
 11
114.0482533612517
 21
201.8324672998357
 31
0.0
  0
LINE
  5
16D
330
71
100
AcDbEntity
  8
Visible (ANSI)
100
AcDbLine
 10
114.0482533612517
 20
201.8324672998357
 30
0.0
 11
113.1996819471314
 21
201.8324672998357
 31
0.0
  0
LINE
  5
16E
330
71
100
AcDbEntity
  8
Visible (ANSI)
100
AcDbLine
 10
113.1996819471314
 20
201.8324672998357
 30
0.0
 11
113.1996819471314
 21
203.1524672773562
 31
0.0
  0
SPLINE
  5
16F
330
71
100
AcDbEntity
  8
Visible (ANSI)
100
AcDbSpline
210
0.0
220
0.0
230
1.0
 70
     8
 71
     2
 72
     7
 73
     4
 74
     0
 42
0.000000001
 43
0.0000000001
 40
0.0
 40
0.0
 40
0.0
 40
1.0
 40
2.0
 40
2.0
 40
2.0
 10
113.1996819471314
 20
203.1524672773562
 30
0.0
 10
113.1996819471314
 20
203.3467529883333
 30
0.0
 10
113.1825390902804
 20
203.615324412331
 30
0.0
 10
113.1396819481532
 20
203.6981815537771
 30
0.0
  0
SPLINE
  5
170
330
71
100
AcDbEntity
  8
Visible (ANSI)
100
AcDbSpline
210
0.0
220
0.0
230
1.0
 70
     8
 71
     2
 72
     7
 73
     4
 74
     0
 42
0.000000001
 43
0.0000000001
 40
0.0
 40
0.0
 40
0.0
 40
1.0
 40
2.0
 40
2.0
 40
2.0
 10
113.1396819481532
 20
203.6981815537771
 30
0.0
 10
113.0996819488344
 20
203.7838958380316
 30
0.0
 10
112.9282533803252
 20
203.8610386938608
 30
0.0
 10
112.7711105258585
 20
203.8610386938608
 30
0.0
  0
SPLINE
  5
171
330
71
100
AcDbEntity
  8
Visible (ANSI)
100
AcDbSpline
210
0.0
220
0.0
230
1.0
 70
     8
 71
     2
 72
     7
 73
     4
 74
     0
 42
0.000000001
 43
0.0000000001
 40
0.0
 40
0.0
 40
0.0
 40
1.0
 40
2.0
 40
2.0
 40
2.0
 10
112.7711105258585
 20
203.8610386938608
 30
0.0
 10
112.6653962419445
 20
203.8610386938608
 30
0.0
 10
112.462539102542
 20
203.7896101236486
 30
0.0
 10
112.3168248193092
 20
203.703895839394
 30
0.0
  0
SPLINE
  5
172
330
71
100
AcDbEntity
  8
Visible (ANSI)
100
AcDbSpline
210
0.0
220
0.0
230
1.0
 70
     8
 71
     2
 72
     7
 73
     4
 74
     0
 42
0.000000001
 43
0.0000000001
 40
0.0
 40
0.0
 40
0.0
 40
1.0
 40
2.0
 40
2.0
 40
2.0
 10
82.02253962093212
 20
202.5096101454468
 30
0.0
 10
82.10539676237821
 20
202.6124672865524
 30
0.0
 10
82.18825390382432
 20
202.8953244245925
 30
0.0
 10
82.18825390382432
 20
203.1467529917392
 30
0.0
  0
SPLINE
  5
173
330
71
100
AcDbEntity
  8
Visible (ANSI)
100
AcDbSpline
210
0.0
220
0.0
230
1.0
 70
     8
 71
     2
 72
     7
 73
     4
 74
     0
 42
0.000000001
 43
0.0000000001
 40
0.0
 40
0.0
 40
0.0
 40
1.0
 40
2.0
 40
2.0
 40
2.0
 10
82.18825390382432
 20
203.1467529917392
 30
0.0
 10
82.18825390382432
 20
203.3781815592266
 30
0.0
 10
82.10253961956974
 20
203.6924672681601
 30
0.0
 10
82.0282539065491
 20
203.7867529808401
 30
0.0
  0
SPLINE
  5
174
330
71
100
AcDbEntity
  8
Visible (ANSI)
100
AcDbSpline
210
0.0
220
0.0
230
1.0
 70
     8
 71
     2
 72
     7
 73
     4
 74
     0
 42
0.000000001
 43
0.0000000001
 40
0.0
 40
0.0
 40
0.0
 40
1.0
 40
2.0
 40
2.0
 40
2.0
 10
82.0282539065491
 20
203.7867529808401
 30
0.0
 10
81.95396819352849
 20
203.8838958363286
 30
0.0
 10
81.73968248289201
 20
203.9638958349662
 30
0.0
 10
81.61968248493559
 20
203.9638958349662
 30
0.0
  0
SPLINE
  5
175
330
71
100
AcDbEntity
  8
Visible (ANSI)
100
AcDbSpline
210
0.0
220
0.0
230
1.0
 70
     8
 71
     2
 72
     7
 73
     4
 74
     0
 42
0.000000001
 43
0.0000000001
 40
0.0
 40
0.0
 40
0.0
 40
1.0
 40
2.0
 40
2.0
 40
2.0
 10
81.61968248493559
 20
203.9638958349662
 30
0.0
 10
81.4968253441707
 20
203.9638958349662
 30
0.0
 10
81.30539677600214
 20
203.8981815503711
 30
0.0
 10
81.21682534893906
 20
203.798181552074
 30
0.0
  0
SPLINE
  5
176
330
71
100
AcDbEntity
  8
Visible (ANSI)
100
AcDbSpline
210
0.0
220
0.0
230
1.0
 70
     8
 71
     2
 72
     7
 73
     4
 74
     0
 42
0.000000001
 43
0.0000000001
 40
0.0
 40
0.0
 40
0.0
 40
1.0
 40
2.0
 40
2.0
 40
2.0
 10
81.21682534893906
 20
203.798181552074
 30
0.0
 10
81.13968249310994
 20
203.7067529822025
 30
0.0
 10
81.04825392323839
 20
203.3896101304605
 30
0.0
 10
81.04825392323839
 20
203.1467529917392
 30
0.0
  0
SPLINE
  5
177
330
71
100
AcDbEntity
  8
Visible (ANSI)
100
AcDbSpline
210
0.0
220
0.0
230
1.0
 70
     8
 71
     2
 72
     7
 73
     4
 74
     0
 42
0.000000001
 43
0.0000000001
 40
0.0
 40
0.0
 40
0.0
 40
1.0
 40
2.0
 40
2.0
 40
2.0
 10
81.04825392323839
 20
203.1467529917392
 30
0.0
 10
81.04825392323839
 20
202.9296101382943
 30
0.0
 10
81.128253921876
 20
202.6124672865524
 30
0.0
 10
81.20539677770512
 20
202.5181815738724
 30
0.0
  0
SPLINE
  5
178
330
71
100
AcDbEntity
  8
Visible (ANSI)
100
AcDbSpline
210
0.0
220
0.0
230
1.0
 70
     8
 71
     2
 72
     7
 73
     4
 74
     0
 42
0.000000001
 43
0.0000000001
 40
0.0
 40
0.0
 40
0.0
 40
1.0
 40
2.0
 40
2.0
 40
2.0
 10
81.20539677770512
 20
202.5181815738724
 30
0.0
 10
81.28253963353428
 20
202.4267530040008
 30
0.0
 10
81.49111105855373
 20
202.3410387197462
 30
0.0
 10
81.62539677055256
 20
202.3410387197462
 30
0.0
  0
SPLINE
  5
179
330
71
100
AcDbEntity
  8
Visible (ANSI)
100
AcDbSpline
210
0.0
220
0.0
230
1.0
 70
     8
 71
     2
 72
     7
 73
     4
 74
     0
 42
0.000000001
 43
0.0000000001
 40
0.0
 40
0.0
 40
0.0
 40
1.0
 40
2.0
 40
2.0
 40
2.0
 10
81.62539677055256
 20
202.3410387197462
 30
0.0
 10
81.73968248289201
 20
202.3410387197462
 30
0.0
 10
81.95111105071999
 20
202.4181815755753
 30
0.0
 10
82.02253962093212
 20
202.5096101454468
 30
0.0
  0
SPLINE
  5
17A
330
71
100
AcDbEntity
  8
Visible (ANSI)
100
AcDbSpline
210
0.0
220
0.0
230
1.0
 70
     8
 71
     2
 72
     7
 73
     4
 74
     0
 42
0.000000001
 43
0.0000000001
 40
0.0
 40
0.0
 40
0.0
 40
1.0
 40
2.0
 40
2.0
 40
2.0
 10
85.55396813222083
 20
203.1696101342072
 30
0.0
 10
85.55396813222083
 20
203.5210386996509
 30
0.0
 10
85.313968136308
 20
203.9010386931795
 30
0.0
 10
85.0082538558
 20
203.9010386931795
 30
0.0
  0
SPLINE
  5
17B
330
71
100
AcDbEntity
  8
Visible (ANSI)
100
AcDbSpline
210
0.0
220
0.0
230
1.0
 70
     8
 71
     2
 72
     7
 73
     4
 74
     0
 42
0.000000001
 43
0.0000000001
 40
0.0
 40
0.0
 40
0.0
 40
1.0
 40
2.0
 40
2.0
 40
2.0
 10
85.0082538558
 20
203.9010386931795
 30
0.0
 10
84.88825385784359
 20
203.9010386931795
 30
0.0
 10
84.63396814788834
 20
203.8296101229674
 30
0.0
 10
84.51968243554889
 20
203.7610386955637
 30
0.0
  0
LINE
  5
17C
330
71
100
AcDbEntity
  8
Visible (ANSI)
100
AcDbLine
 10
84.51968243554889
 20
203.7610386955637
 30
0.0
 11
84.51968243554889
 21
202.4410387180432
 31
0.0
  0
SPLINE
  5
17D
330
71
100
AcDbEntity
  8
Visible (ANSI)
100
AcDbSpline
210
0.0
220
0.0
230
1.0
 70
     8
 71
     2
 72
     7
 73
     4
 74
     0
 42
0.000000001
 43
0.0000000001
 40
0.0
 40
0.0
 40
0.0
 40
1.0
 40
2.0
 40
2.0
 40
2.0
 10
84.51968243554889
 20
202.4410387180432
 30
0.0
 10
84.61111100542044
 20
202.4067530043414
 30
0.0
 10
84.77396814550415
 20
202.3838958618735
 30
0.0
 10
84.89111100065207
 20
202.3838958618735
 30
0.0
  0
SPLINE
  5
17E
330
71
100
AcDbEntity
  8
Visible (ANSI)
100
AcDbSpline
210
0.0
220
0.0
230
1.0
 70
     8
 71
     2
 72
     7
 73
     4
 74
     0
 42
0.000000001
 43
0.0000000001
 40
0.0
 40
0.0
 40
0.0
 40
1.0
 40
2.0
 40
2.0
 40
2.0
 10
84.89111100065207
 20
202.3838958618735
 30
0.0
 10
85.22539670924494
 20
202.3838958618735
 30
0.0
 10
85.55396813222083
 20
202.7781815694445
 30
0.0
 10
85.55396813222083
 20
203.1696101342072
 30
0.0
  0
SPLINE
  5
17F
330
71
100
AcDbEntity
  8
Visible (ANSI)
100
AcDbSpline
210
0.0
220
0.0
230
1.0
 70
     8
 71
     2
 72
     7
 73
     4
 74
     0
 42
0.000000001
 43
0.0000000001
 40
0.0
 40
0.0
 40
0.0
 40
1.0
 40
2.0
 40
2.0
 40
2.0
 10
88.69396807874695
 20
202.5096101454468
 30
0.0
 10
88.77682522019304
 20
202.6124672865524
 30
0.0
 10
88.85968236163913
 20
202.8953244245925
 30
0.0
 10
88.85968236163913
 20
203.1467529917392
 30
0.0
  0
SPLINE
  5
180
330
71
100
AcDbEntity
  8
Visible (ANSI)
100
AcDbSpline
210
0.0
220
0.0
230
1.0
 70
     8
 71
     2
 72
     7
 73
     4
 74
     0
 42
0.000000001
 43
0.0000000001
 40
0.0
 40
0.0
 40
0.0
 40
1.0
 40
2.0
 40
2.0
 40
2.0
 10
88.85968236163913
 20
203.1467529917392
 30
0.0
 10
88.85968236163913
 20
203.3781815592266
 30
0.0
 10
88.77396807738454
 20
203.6924672681601
 30
0.0
 10
88.69968236436392
 20
203.7867529808401
 30
0.0
  0
SPLINE
  5
181
330
71
100
AcDbEntity
  8
Visible (ANSI)
100
AcDbSpline
210
0.0
220
0.0
230
1.0
 70
     8
 71
     2
 72
     7
 73
     4
 74
     0
 42
0.000000001
 43
0.0000000001
 40
0.0
 40
0.0
 40
0.0
 40
1.0
 40
2.0
 40
2.0
 40
2.0
 10
88.69968236436392
 20
203.7867529808401
 30
0.0
 10
88.62539665134328
 20
203.8838958363286
 30
0.0
 10
88.41111094070683
 20
203.9638958349662
 30
0.0
 10
88.29111094275042
 20
203.9638958349662
 30
0.0
  0
SPLINE
  5
182
330
71
100
AcDbEntity
  8
Visible (ANSI)
100
AcDbSpline
210
0.0
220
0.0
230
1.0
 70
     8
 71
     2
 72
     7
 73
     4
 74
     0
 42
0.000000001
 43
0.0000000001
 40
0.0
 40
0.0
 40
0.0
 40
1.0
 40
2.0
 40
2.0
 40
2.0
 10
88.29111094275042
 20
203.9638958349662
 30
0.0
 10
88.16825380198551
 20
203.9638958349662
 30
0.0
 10
87.97682523381695
 20
203.8981815503711
 30
0.0
 10
87.88825380675389
 20
203.798181552074
 30
0.0
  0
SPLINE
  5
183
330
71
100
AcDbEntity
  8
Visible (ANSI)
100
AcDbSpline
210
0.0
220
0.0
230
1.0
 70
     8
 71
     2
 72
     7
 73
     4
 74
     0
 42
0.000000001
 43
0.0000000001
 40
0.0
 40
0.0
 40
0.0
 40
1.0
 40
2.0
 40
2.0
 40
2.0
 10
87.88825380675389
 20
203.798181552074
 30
0.0
 10
87.81111095092477
 20
203.7067529822025
 30
0.0
 10
87.71968238105321
 20
203.3896101304605
 30
0.0
 10
87.71968238105321
 20
203.1467529917392
 30
0.0
  0
SPLINE
  5
184
330
71
100
AcDbEntity
  8
Visible (ANSI)
100
AcDbSpline
210
0.0
220
0.0
230
1.0
 70
     8
 71
     2
 72
     7
 73
     4
 74
     0
 42
0.000000001
 43
0.0000000001
 40
0.0
 40
0.0
 40
0.0
 40
1.0
 40
2.0
 40
2.0
 40
2.0
 10
87.71968238105321
 20
203.1467529917392
 30
0.0
 10
87.71968238105321
 20
202.9296101382943
 30
0.0
 10
87.79968237969084
 20
202.6124672865524
 30
0.0
 10
87.87682523551994
 20
202.5181815738724
 30
0.0
  0
SPLINE
  5
185
330
71
100
AcDbEntity
  8
Visible (ANSI)
100
AcDbSpline
210
0.0
220
0.0
230
1.0
 70
     8
 71
     2
 72
     7
 73
     4
 74
     0
 42
0.000000001
 43
0.0000000001
 40
0.0
 40
0.0
 40
0.0
 40
1.0
 40
2.0
 40
2.0
 40
2.0
 10
87.87682523551994
 20
202.5181815738724
 30
0.0
 10
87.95396809134906
 20
202.4267530040008
 30
0.0
 10
88.16253951636854
 20
202.3410387197462
 30
0.0
 10
88.29682522836739
 20
202.3410387197462
 30
0.0
  0
SPLINE
  5
186
330
71
100
AcDbEntity
  8
Visible (ANSI)
100
AcDbSpline
210
0.0
220
0.0
230
1.0
 70
     8
 71
     2
 72
     7
 73
     4
 74
     0
 42
0.000000001
 43
0.0000000001
 40
0.0
 40
0.0
 40
0.0
 40
1.0
 40
2.0
 40
2.0
 40
2.0
 10
88.29682522836739
 20
202.3410387197462
 30
0.0
 10
88.41111094070683
 20
202.3410387197462
 30
0.0
 10
88.6225395085348
 20
202.4181815755753
 30
0.0
 10
88.69396807874695
 20
202.5096101454468
 30
0.0
  0
SPLINE
  5
187
330
71
100
AcDbEntity
  8
Visible (ANSI)
100
AcDbSpline
210
0.0
220
0.0
230
1.0
 70
     8
 71
     2
 72
     7
 73
     4
 74
     0
 42
0.000000001
 43
0.0000000001
 40
0.0
 40
0.0
 40
0.0
 40
1.0
 40
2.0
 40
2.0
 40
2.0
 10
92.22539659003563
 20
203.1696101342072
 30
0.0
 10
92.22539659003563
 20
203.5210386996509
 30
0.0
 10
91.98539659412283
 20
203.9010386931795
 30
0.0
 10
91.67968231361482
 20
203.9010386931795
 30
0.0
  0
SPLINE
  5
188
330
71
100
AcDbEntity
  8
Visible (ANSI)
100
AcDbSpline
210
0.0
220
0.0
230
1.0
 70
     8
 71
     2
 72
     7
 73
     4
 74
     0
 42
0.000000001
 43
0.0000000001
 40
0.0
 40
0.0
 40
0.0
 40
1.0
 40
2.0
 40
2.0
 40
2.0
 10
91.67968231361482
 20
203.9010386931795
 30
0.0
 10
91.55968231565841
 20
203.9010386931795
 30
0.0
 10
91.30539660570315
 20
203.8296101229674
 30
0.0
 10
91.19111089336371
 20
203.7610386955637
 30
0.0
  0
LINE
  5
189
330
71
100
AcDbEntity
  8
Visible (ANSI)
100
AcDbLine
 10
91.19111089336371
 20
203.7610386955637
 30
0.0
 11
91.19111089336371
 21
202.4410387180432
 31
0.0
  0
SPLINE
  5
18A
330
71
100
AcDbEntity
  8
Visible (ANSI)
100
AcDbSpline
210
0.0
220
0.0
230
1.0
 70
     8
 71
     2
 72
     7
 73
     4
 74
     0
 42
0.000000001
 43
0.0000000001
 40
0.0
 40
0.0
 40
0.0
 40
1.0
 40
2.0
 40
2.0
 40
2.0
 10
91.19111089336371
 20
202.4410387180432
 30
0.0
 10
91.28253946323527
 20
202.4067530043414
 30
0.0
 10
91.44539660331899
 20
202.3838958618735
 30
0.0
 10
91.56253945846689
 20
202.3838958618735
 30
0.0
  0
SPLINE
  5
18B
330
71
100
AcDbEntity
  8
Visible (ANSI)
100
AcDbSpline
210
0.0
220
0.0
230
1.0
 70
     8
 71
     2
 72
     7
 73
     4
 74
     0
 42
0.000000001
 43
0.0000000001
 40
0.0
 40
0.0
 40
0.0
 40
1.0
 40
2.0
 40
2.0
 40
2.0
 10
91.56253945846689
 20
202.3838958618735
 30
0.0
 10
91.89682516705975
 20
202.3838958618735
 30
0.0
 10
92.22539659003563
 20
202.7781815694445
 30
0.0
 10
92.22539659003563
 20
203.1696101342072
 30
0.0
  0
LINE
  5
18C
330
71
100
AcDbEntity
  8
Visible (ANSI)
100
AcDbLine
 10
100.2139678825625
 20
202.5581815731911
 30
0.0
 11
100.2139678825625
 21
203.8553244082438
 31
0.0
  0
SPLINE
  5
18D
330
71
100
AcDbEntity
  8
Visible (ANSI)
100
AcDbSpline
210
0.0
220
0.0
230
1.0
 70
     8
 71
     2
 72
     7
 73
     4
 74
     0
 42
0.000000001
 43
0.0000000001
 40
0.0
 40
0.0
 40
0.0
 40
1.0
 40
2.0
 40
2.0
 40
2.0
 10
100.2139678825625
 20
203.8553244082438
 30
0.0
 10
100.1253964554994
 20
203.8924672647541
 30
0.0
 10
99.92825360171393
 20
203.9267529784559
 30
0.0
 10
99.84539646026782
 20
203.9267529784559
 30
0.0
  0
SPLINE
  5
18E
330
71
100
AcDbEntity
  8
Visible (ANSI)
100
AcDbSpline
210
0.0
220
0.0
230
1.0
 70
     8
 71
     2
 72
     7
 73
     4
 74
     0
 42
0.000000001
 43
0.0000000001
 40
0.0
 40
0.0
 40
0.0
 40
1.0
 40
2.0
 40
2.0
 40
2.0
 10
99.84539646026782
 20
203.9267529784559
 30
0.0
 10
99.51396789448345
 20
203.9267529784559
 30
0.0
 10
99.17968218589059
 20
203.509610128417
 30
0.0
 10
99.17968218589059
 20
203.1410387061223
 30
0.0
  0
SPLINE
  5
18F
330
71
100
AcDbEntity
  8
Visible (ANSI)
100
AcDbSpline
210
0.0
220
0.0
230
1.0
 70
     8
 71
     2
 72
     7
 73
     4
 74
     0
 42
0.000000001
 43
0.0000000001
 40
0.0
 40
0.0
 40
0.0
 40
1.0
 40
2.0
 40
2.0
 40
2.0
 10
99.17968218589059
 20
203.1410387061223
 30
0.0
 10
99.17968218589059
 20
202.7524672841682
 30
0.0
 10
99.44825360988827
 20
202.4010387187244
 30
0.0
 10
99.74253931916232
 20
202.4010387187244
 30
0.0
  0
SPLINE
  5
190
330
71
100
AcDbEntity
  8
Visible (ANSI)
100
AcDbSpline
210
0.0
220
0.0
230
1.0
 70
     8
 71
     2
 72
     7
 73
     4
 74
     0
 42
0.000000001
 43
0.0000000001
 40
0.0
 40
0.0
 40
0.0
 40
1.0
 40
2.0
 40
2.0
 40
2.0
 10
99.74253931916232
 20
202.4010387187244
 30
0.0
 10
99.85682503150176
 20
202.4010387187244
 30
0.0
 10
100.116825027074
 20
202.486753002979
 30
0.0
 10
100.2139678825625
 20
202.5581815731911
 30
0.0
  0
SPLINE
  5
191
330
71
100
AcDbEntity
  8
Visible (ANSI)
100
AcDbSpline
210
0.0
220
0.0
230
1.0
 70
     8
 71
     2
 72
     7
 73
     4
 74
     0
 42
0.000000001
 43
0.0000000001
 40
0.0
 40
0.0
 40
0.0
 40
1.0
 40
2.0
 40
2.0
 40
2.0
 10
108.0911106055584
 20
202.5096101454468
 30
0.0
 10
108.1739677470045
 20
202.6124672865524
 30
0.0
 10
108.2568248884506
 20
202.8953244245925
 30
0.0
 10
108.2568248884506
 20
203.1467529917392
 30
0.0
  0
SPLINE
  5
192
330
71
100
AcDbEntity
  8
Visible (ANSI)
100
AcDbSpline
210
0.0
220
0.0
230
1.0
 70
     8
 71
     2
 72
     7
 73
     4
 74
     0
 42
0.000000001
 43
0.0000000001
 40
0.0
 40
0.0
 40
0.0
 40
1.0
 40
2.0
 40
2.0
 40
2.0
 10
108.2568248884506
 20
203.1467529917392
 30
0.0
 10
108.2568248884506
 20
203.3781815592266
 30
0.0
 10
108.171110604196
 20
203.6924672681601
 30
0.0
 10
108.0968248911754
 20
203.7867529808401
 30
0.0
  0
SPLINE
  5
193
330
71
100
AcDbEntity
  8
Visible (ANSI)
100
AcDbSpline
210
0.0
220
0.0
230
1.0
 70
     8
 71
     2
 72
     7
 73
     4
 74
     0
 42
0.000000001
 43
0.0000000001
 40
0.0
 40
0.0
 40
0.0
 40
1.0
 40
2.0
 40
2.0
 40
2.0
 10
108.0968248911754
 20
203.7867529808401
 30
0.0
 10
108.0225391781548
 20
203.8838958363286
 30
0.0
 10
107.8082534675183
 20
203.9638958349662
 30
0.0
 10
107.6882534695619
 20
203.9638958349662
 30
0.0
  0
SPLINE
  5
194
330
71
100
AcDbEntity
  8
Visible (ANSI)
100
AcDbSpline
210
0.0
220
0.0
230
1.0
 70
     8
 71
     2
 72
     7
 73
     4
 74
     0
 42
0.000000001
 43
0.0000000001
 40
0.0
 40
0.0
 40
0.0
 40
1.0
 40
2.0
 40
2.0
 40
2.0
 10
107.6882534695619
 20
203.9638958349662
 30
0.0
 10
107.565396328797
 20
203.9638958349662
 30
0.0
 10
107.3739677606284
 20
203.8981815503711
 30
0.0
 10
107.2853963335653
 20
203.798181552074
 30
0.0
  0
SPLINE
  5
195
330
71
100
AcDbEntity
  8
Visible (ANSI)
100
AcDbSpline
210
0.0
220
0.0
230
1.0
 70
     8
 71
     2
 72
     7
 73
     4
 74
     0
 42
0.000000001
 43
0.0000000001
 40
0.0
 40
0.0
 40
0.0
 40
1.0
 40
2.0
 40
2.0
 40
2.0
 10
107.2853963335653
 20
203.798181552074
 30
0.0
 10
107.2082534777362
 20
203.7067529822025
 30
0.0
 10
107.1168249078647
 20
203.3896101304605
 30
0.0
 10
107.1168249078647
 20
203.1467529917392
 30
0.0
  0
SPLINE
  5
196
330
71
100
AcDbEntity
  8
Visible (ANSI)
100
AcDbSpline
210
0.0
220
0.0
230
1.0
 70
     8
 71
     2
 72
     7
 73
     4
 74
     0
 42
0.000000001
 43
0.0000000001
 40
0.0
 40
0.0
 40
0.0
 40
1.0
 40
2.0
 40
2.0
 40
2.0
 10
107.1168249078647
 20
203.1467529917392
 30
0.0
 10
107.1168249078647
 20
202.9296101382943
 30
0.0
 10
107.1968249065023
 20
202.6124672865524
 30
0.0
 10
107.2739677623314
 20
202.5181815738724
 30
0.0
  0
SPLINE
  5
197
330
71
100
AcDbEntity
  8
Visible (ANSI)
100
AcDbSpline
210
0.0
220
0.0
230
1.0
 70
     8
 71
     2
 72
     7
 73
     4
 74
     0
 42
0.000000001
 43
0.0000000001
 40
0.0
 40
0.0
 40
0.0
 40
1.0
 40
2.0
 40
2.0
 40
2.0
 10
107.2739677623314
 20
202.5181815738724
 30
0.0
 10
107.3511106181605
 20
202.4267530040008
 30
0.0
 10
107.55968204318
 20
202.3410387197462
 30
0.0
 10
107.6939677551788
 20
202.3410387197462
 30
0.0
  0
SPLINE
  5
198
330
71
100
AcDbEntity
  8
Visible (ANSI)
100
AcDbSpline
210
0.0
220
0.0
230
1.0
 70
     8
 71
     2
 72
     7
 73
     4
 74
     0
 42
0.000000001
 43
0.0000000001
 40
0.0
 40
0.0
 40
0.0
 40
1.0
 40
2.0
 40
2.0
 40
2.0
 10
107.6939677551788
 20
202.3410387197462
 30
0.0
 10
107.8082534675183
 20
202.3410387197462
 30
0.0
 10
108.0196820353463
 20
202.4181815755753
 30
0.0
 10
108.0911106055584
 20
202.5096101454468
 30
0.0
  0
LINE
  5
199
330
71
100
AcDbEntity
  8
Visible (ANSI)
100
AcDbLine
 10
60.10253979619413
 20
226.7396101178098
 30
0.0
 11
60.10253979619413
 21
225.4896101178098
 31
0.0
  0
LINE
  5
19A
330
71
100
AcDbEntity
  8
Visible (ANSI)
100
AcDbLine
 10
60.10253979619413
 20
225.4896101178098
 30
0.0
 11
48.00253979619411
 21
225.4896101178098
 31
0.0
  0
LINE
  5
19B
330
71
100
AcDbEntity
  8
Visible (ANSI)
100
AcDbLine
 10
48.00253979619412
 20
125.4896101178097
 30
0.0
 11
60.10253979619413
 21
125.4896101178097
 31
0.0
  0
LINE
  5
19C
330
71
100
AcDbEntity
  8
Visible (ANSI)
100
AcDbLine
 10
60.10253979619413
 20
125.4896101178097
 30
0.0
 11
60.10253979619413
 21
124.2396101178097
 31
0.0
  0
LINE
  5
19D
330
71
100
AcDbEntity
  8
Visible (ANSI)
100
AcDbLine
 10
131.9025397961941
 20
124.2396101178097
 30
0.0
 11
131.9025397961941
 21
125.4896101178097
 31
0.0
  0
LINE
  5
19E
330
71
100
AcDbEntity
  8
Visible (ANSI)
100
AcDbLine
 10
131.9025397961941
 20
125.4896101178097
 30
0.0
 11
144.0025397961941
 21
125.4896101178097
 31
0.0
  0
LINE
  5
19F
330
71
100
AcDbEntity
  8
Visible (ANSI)
100
AcDbLine
 10
144.0025397961941
 20
225.4896101178098
 30
0.0
 11
131.9025397961941
 21
225.4896101178098
 31
0.0
  0
LINE
  5
1A0
330
71
100
AcDbEntity
  8
Visible (ANSI)
100
AcDbLine
 10
131.9025397961941
 20
225.4896101178098
 30
0.0
 11
131.9025397961941
 21
226.7396101178098
 31
0.0
  0
CIRCLE
  5
1A1
330
71
100
AcDbEntity
  8
Visible (ANSI)
100
AcDbCircle
 10
98.12753979619413
 20
175.4896101178097
 30
0.0
 40
0.6
  0
CIRCLE
  5
1A2
330
71
100
AcDbEntity
  8
Visible (ANSI)
100
AcDbCircle
 10
96.00253979619411
 20
175.4896101178097
 30
0.0
 40
0.6
  0
CIRCLE
  5
1A3
330
71
100
AcDbEntity
  8
Visible (ANSI)
100
AcDbCircle
 10
93.87753979619411
 20
175.4896101178097
 30
0.0
 40
0.6
  0
LINE
  5
1A4
330
71
100
AcDbEntity
  8
Visible (ANSI)
100
AcDbLine
 10
90.99753979619411
 20
180.5396101178098
 30
0.0
 11
90.99753979619411
 21
170.4396101178098
 31
0.0
  0
LINE
  5
1A5
330
71
100
AcDbEntity
  8
Visible (ANSI)
100
AcDbLine
 10
90.99753979619411
 20
170.4396101178098
 30
0.0
 11
87.64753979619412
 21
170.4396101178098
 31
0.0
  0
LINE
  5
1A6
330
71
100
AcDbEntity
  8
Visible (ANSI)
100
AcDbLine
 10
87.64753979619412
 20
170.4396101178098
 30
0.0
 11
87.64753979619412
 21
180.5396101178098
 31
0.0
  0
LINE
  5
1A7
330
71
100
AcDbEntity
  8
Visible (ANSI)
100
AcDbLine
 10
87.64753979619412
 20
180.5396101178098
 30
0.0
 11
90.99753979619411
 21
180.5396101178098
 31
0.0
  0
LINE
  5
1A8
330
71
100
AcDbEntity
  8
Visible (ANSI)
100
AcDbLine
 10
104.3575397961941
 20
180.5396101178098
 30
0.0
 11
104.3575397961941
 21
170.4396101178098
 31
0.0
  0
LINE
  5
1A9
330
71
100
AcDbEntity
  8
Visible (ANSI)
100
AcDbLine
 10
104.3575397961941
 20
170.4396101178098
 30
0.0
 11
101.0075397961941
 21
170.4396101178098
 31
0.0
  0
LINE
  5
1AA
330
71
100
AcDbEntity
  8
Visible (ANSI)
100
AcDbLine
 10
101.0075397961941
 20
170.4396101178098
 30
0.0
 11
101.0075397961941
 21
180.5396101178098
 31
0.0
  0
LINE
  5
1AB
330
71
100
AcDbEntity
  8
Visible (ANSI)
100
AcDbLine
 10
101.0075397961941
 20
180.5396101178098
 30
0.0
 11
104.3575397961941
 21
180.5396101178098
 31
0.0
  0
LINE
  5
1AC
330
71
100
AcDbEntity
  8
Visible (ANSI)
100
AcDbLine
 10
70.90253979619411
 20
125.4896101178097
 30
0.0
 11
70.90253979619411
 21
145.4896101178098
 31
0.0
  0
ARC
  5
1AD
330
71
100
AcDbEntity
  8
Visible (ANSI)
100
AcDbCircle
 10
80.9025397961941
 20
145.4896101178098
 30
0.0
 40
9.999999999999992
100
AcDbArc
 50
101.7791858247875
 51
180.0
  0
ARC
  5
1AE
330
71
100
AcDbEntity
  8
Visible (ANSI)
100
AcDbCircle
 10
95.90253979619413
 20
73.55812887665948
 30
0.0
 40
83.47882683838902
100
AcDbArc
 50
78.22081417521244
 51
101.7791858247876
  0
ARC
  5
1AF
330
71
100
AcDbEntity
  8
Visible (ANSI)
100
AcDbCircle
 10
110.9025397961941
 20
145.4896101178098
 30
0.0
 40
10.00000000000001
100
AcDbArc
 50
0.0
 51
78.22081417521243
  0
LINE
  5
1B0
330
71
100
AcDbEntity
  8
Visible (ANSI)
100
AcDbLine
 10
120.9025397961941
 20
145.4896101178098
 30
0.0
 11
120.9025397961941
 21
125.4896101178098
 31
0.0
  0
LINE
  5
1B1
330
71
100
AcDbEntity
  8
Visible (ANSI)
100
AcDbLine
 10
120.9025397961941
 20
125.4896101178098
 30
0.0
 11
70.90253979619411
 21
125.4896101178097
 31
0.0
  0
LINE
  5
1B2
330
71
100
AcDbEntity
  8
Visible (ANSI)
100
AcDbLine
 10
53.2339683125918
 20
130.3038958182824
 30
0.0
 11
52.75682546357463
 21
130.3038958182824
 31
0.0
  0
LINE
  5
1B3
330
71
100
AcDbEntity
  8
Visible (ANSI)
100
AcDbLine
 10
52.75682546357463
 20
130.3038958182824
 30
0.0
 11
52.75682546357463
 21
129.4896101178639
 31
0.0
  0
LINE
  5
1B4
330
71
100
AcDbEntity
  8
Visible (ANSI)
100
AcDbLine
 10
52.75682546357463
 20
129.4896101178639
 30
0.0
 11
51.89396833541185
 21
129.4896101178639
 31
0.0
  0
LINE
  5
1B5
330
71
100
AcDbEntity
  8
Visible (ANSI)
100
AcDbLine
 10
51.89396833541185
 20
129.4896101178639
 30
0.0
 11
51.89396833541185
 21
130.3038958182824
 31
0.0
  0
LINE
  5
1B6
330
71
100
AcDbEntity
  8
Visible (ANSI)
100
AcDbLine
 10
51.89396833541185
 20
130.3038958182824
 30
0.0
 11
50.19968264997965
 21
130.3038958182824
 31
0.0
  0
LINE
  5
1B7
330
71
100
AcDbEntity
  8
Visible (ANSI)
100
AcDbLine
 10
50.19968264997965
 20
130.3038958182824
 30
0.0
 11
50.19968264997965
 21
130.9667529498512
 31
0.0
  0
LINE
  5
1B8
330
71
100
AcDbEntity
  8
Visible (ANSI)
100
AcDbLine
 10
50.19968264997965
 20
130.9667529498512
 30
0.0
 11
51.83682547924213
 21
132.9981814866847
 31
0.0
  0
LINE
  5
1B9
330
71
100
AcDbEntity
  8
Visible (ANSI)
100
AcDbLine
 10
51.83682547924213
 20
132.9981814866847
 30
0.0
 11
52.75682546357463
 21
132.9981814866847
 31
0.0
  0
LINE
  5
1BA
330
71
100
AcDbEntity
  8
Visible (ANSI)
100
AcDbLine
 10
52.75682546357463
 20
132.9981814866847
 30
0.0
 11
52.75682546357463
 21
130.9438958073833
 31
0.0
  0
LINE
  5
1BB
330
71
100
AcDbEntity
  8
Visible (ANSI)
100
AcDbLine
 10
52.75682546357463
 20
130.9438958073833
 30
0.0
 11
53.2339683125918
 21
130.9438958073833
 31
0.0
  0
LINE
  5
1BC
330
71
100
AcDbEntity
  8
Visible (ANSI)
100
AcDbLine
 10
53.2339683125918
 20
130.9438958073833
 30
0.0
 11
53.2339683125918
 21
130.3038958182824
 31
0.0
  0
LINE
  5
1BD
330
71
100
AcDbEntity
  8
Visible (ANSI)
100
AcDbLine
 10
51.89396833541185
 20
130.9438958073833
 30
0.0
 11
51.89396833541185
 21
132.2124672143511
 31
0.0
  0
LINE
  5
1BE
330
71
100
AcDbEntity
  8
Visible (ANSI)
100
AcDbLine
 10
51.89396833541185
 20
132.2124672143511
 30
0.0
 11
50.87396835278235
 21
130.9438958073833
 31
0.0
  0
LINE
  5
1BF
330
71
100
AcDbEntity
  8
Visible (ANSI)
100
AcDbLine
 10
50.87396835278235
 20
130.9438958073833
 30
0.0
 11
51.89396833541185
 21
130.9438958073833
 31
0.0
  0
LINE
  5
1C0
330
71
100
AcDbEntity
  8
Visible (ANSI)
100
AcDbLine
 10
60.10253979619413
 20
226.7396101178098
 30
0.0
 11
60.10253979619413
 21
228.7396101178098
 31
0.0
  0
LINE
  5
1C1
330
71
100
AcDbEntity
  8
Visible (ANSI)
100
AcDbLine
 10
131.9025397961941
 20
228.7396101178098
 30
0.0
 11
131.9025397961941
 21
226.7396101178098
 31
0.0
  0
LINE
  5
1C2
330
71
100
AcDbEntity
  8
Visible (ANSI)
100
AcDbLine
 10
131.9025397961941
 20
228.7396101178098
 30
0.0
 11
60.10253979619413
 21
228.7396101178098
 31
0.0
  0
LINE
  5
1C3
330
71
100
AcDbEntity
  8
Visible (ANSI)
100
AcDbLine
 10
131.9025397961941
 20
124.2396101178097
 30
0.0
 11
131.9025397961941
 21
122.2396101178097
 31
0.0
  0
LINE
  5
1C4
330
71
100
AcDbEntity
  8
Visible (ANSI)
100
AcDbLine
 10
60.10253979619413
 20
122.2396101178097
 30
0.0
 11
60.10253979619413
 21
124.2396101178097
 31
0.0
  0
LINE
  5
1C5
330
71
100
AcDbEntity
  8
Visible (ANSI)
100
AcDbLine
 10
60.10253979619413
 20
122.2396101178097
 30
0.0
 11
131.9025397961941
 21
122.2396101178097
 31
0.0
  0
LINE
  5
1C6
330
71
100
AcDbEntity
  8
Visible (ANSI)
100
AcDbLine
 10
46.00253979619411
 20
225.4896101178098
 30
0.0
 11
46.00253979619411
 21
125.4896101178097
 31
0.0
  0
LINE
  5
1C7
330
71
100
AcDbEntity
  8
Visible (ANSI)
100
AcDbLine
 10
46.00253979619411
 20
225.4896101178098
 30
0.0
 11
48.00253979619411
 21
225.4896101178098
 31
0.0
  0
LINE
  5
1C8
330
71
100
AcDbEntity
  8
Visible (ANSI)
100
AcDbLine
 10
48.00253979619412
 20
125.4896101178097
 30
0.0
 11
46.00253979619411
 21
125.4896101178097
 31
0.0
  0
LINE
  5
1C9
330
71
100
AcDbEntity
  8
Visible (ANSI)
100
AcDbLine
 10
146.0025397961941
 20
125.4896101178097
 30
0.0
 11
146.0025397961941
 21
225.4896101178098
 31
0.0
  0
LINE
  5
1CA
330
71
100
AcDbEntity
  8
Visible (ANSI)
100
AcDbLine
 10
144.0025397961941
 20
225.4896101178098
 30
0.0
 11
146.0025397961941
 21
225.4896101178098
 31
0.0
  0
LINE
  5
1CB
330
71
100
AcDbEntity
  8
Visible (ANSI)
100
AcDbLine
 10
146.0025397961941
 20
125.4896101178097
 30
0.0
 11
144.0025397961941
 21
125.4896101178097
 31
0.0
  0
LINE
  5
1CC
330
71
100
AcDbEntity
  8
Visible (ANSI)
100
AcDbLine
 10
53.97272244411951
 20
292.1703770302352
 30
0.0
 11
51.63557962677796
 21
292.1703770302352
 31
0.0
  0
LINE
  5
1CD
330
71
100
AcDbEntity
  8
Visible (ANSI)
100
AcDbLine
 10
53.97272244411951
 20
292.7818055912512
 30
0.0
 11
53.97272244411951
 21
292.1703770302352
 31
0.0
  0
LINE
  5
1CE
330
71
100
AcDbEntity
  8
Visible (ANSI)
100
AcDbLine
 10
53.24986531357255
 20
292.7818055912512
 30
0.0
 11
53.97272244411951
 21
292.7818055912512
 31
0.0
  0
LINE
  5
1CF
330
71
100
AcDbEntity
  8
Visible (ANSI)
100
AcDbLine
 10
53.24986531357255
 20
295.678948399056
 30
0.0
 11
53.24986531357255
 21
292.7818055912512
 31
0.0
  0
LINE
  5
1D0
330
71
100
AcDbEntity
  8
Visible (ANSI)
100
AcDbLine
 10
52.47272246966436
 20
295.678948399056
 30
0.0
 11
53.24986531357255
 21
295.678948399056
 31
0.0
  0
SPLINE
  5
1D1
330
71
100
AcDbEntity
  8
Visible (ANSI)
100
AcDbSpline
210
0.0
220
0.0
230
1.0
 70
     8
 71
     2
 72
     7
 73
     4
 74
     0
 42
0.000000001
 43
0.0000000001
 40
0.0
 40
0.0
 40
0.0
 40
1.0
 40
2.0
 40
2.0
 40
2.0
 10
52.21843675970911
 20
295.2903769771019
 30
0.0
 10
52.341293900474
 20
295.3503769760801
 30
0.0
 10
52.46129389843042
 20
295.5389484014402
 30
0.0
 10
52.47272246966436
 20
295.678948399056
 30
0.0
  0
SPLINE
  5
1D2
330
71
100
AcDbEntity
  8
Visible (ANSI)
100
AcDbSpline
210
0.0
220
0.0
230
1.0
 70
     8
 71
     2
 72
     7
 73
     4
 74
     0
 42
0.000000001
 43
0.0000000001
 40
0.0
 40
0.0
 40
0.0
 40
1.0
 40
2.0
 40
2.0
 40
2.0
 10
51.63557962677796
 20
295.2018055500388
 30
0.0
 10
51.80415105247863
 20
295.2018055500388
 30
0.0
 10
52.11557961860361
 20
295.2418055493576
 30
0.0
 10
52.21843675970911
 20
295.2903769771019
 30
0.0
  0
LINE
  5
1D3
330
71
100
AcDbEntity
  8
Visible (ANSI)
100
AcDbLine
 10
51.63557962677796
 20
294.6303769883416
 30
0.0
 11
51.63557962677796
 21
295.2018055500388
 31
0.0
  0
LINE
  5
1D4
330
71
100
AcDbEntity
  8
Visible (ANSI)
100
AcDbLine
 10
52.37272247136735
 20
294.6303769883416
 30
0.0
 11
51.63557962677796
 21
294.6303769883416
 31
0.0
  0
LINE
  5
1D5
330
71
100
AcDbEntity
  8
Visible (ANSI)
100
AcDbLine
 10
52.37272247136735
 20
292.7818055912512
 30
0.0
 11
52.37272247136735
 21
294.6303769883416
 31
0.0
  0
LINE
  5
1D6
330
71
100
AcDbEntity
  8
Visible (ANSI)
100
AcDbLine
 10
51.63557962677796
 20
292.7818055912512
 30
0.0
 11
52.37272247136735
 21
292.7818055912512
 31
0.0
  0
LINE
  5
1D7
330
71
100
AcDbEntity
  8
Visible (ANSI)
100
AcDbLine
 10
51.63557962677796
 20
292.1703770302352
 30
0.0
 11
51.63557962677796
 21
292.7818055912512
 31
0.0
  0
LINE
  5
1D8
330
71
100
AcDbEntity
  8
Visible (ANSI)
100
AcDbLine
 10
48.43714053448646
 20
389.3894781014714
 30
0.0
 11
48.43714053448653
 21
289.3894781014715
 31
0.0
  0
LINE
  5
1D9
330
71
100
AcDbEntity
  8
Visible (ANSI)
100
AcDbLine
 10
48.43714053448646
 20
389.3894781014714
 30
0.0
 11
50.43714053448645
 21
389.3894781014714
 31
0.0
  0
LINE
  5
1DA
330
71
100
AcDbEntity
  8
Visible (ANSI)
100
AcDbLine
 10
50.43714053448653
 20
289.3894781014715
 30
0.0
 11
48.43714053448653
 21
289.3894781014715
 31
0.0
  0
LINE
  5
1DB
330
71
100
AcDbEntity
  8
Visible (ANSI)
100
AcDbLine
 10
148.4371405344865
 20
289.3894781014715
 30
0.0
 11
148.4371405344864
 21
389.3894781014716
 31
0.0
  0
LINE
  5
1DC
330
71
100
AcDbEntity
  8
Visible (ANSI)
100
AcDbLine
 10
148.4371405344865
 20
289.3894781014715
 30
0.0
 11
146.4371405344865
 21
289.3894781014715
 31
0.0
  0
LINE
  5
1DD
330
71
100
AcDbEntity
  8
Visible (ANSI)
100
AcDbLine
 10
146.4371405344864
 20
389.3894781014716
 30
0.0
 11
148.4371405344864
 21
389.3894781014716
 31
0.0
  0
LINE
  5
1DE
330
71
100
AcDbEntity
  8
Visible (ANSI)
100
AcDbLine
 10
62.5371405344865
 20
389.3894781014715
 30
0.0
 11
50.43714053448645
 21
389.3894781014714
 31
0.0
  0
LINE
  5
1DF
330
71
100
AcDbEntity
  8
Visible (ANSI)
100
AcDbLine
 10
50.43714053448653
 20
289.3894781014715
 30
0.0
 11
62.5371405344865
 21
289.3894781014715
 31
0.0
  0
LINE
  5
1E0
330
71
100
AcDbEntity
  8
Visible (ANSI)
100
AcDbLine
 10
62.5371405344865
 20
289.3894781014715
 30
0.0
 11
62.5371405344865
 21
288.1394781014715
 31
0.0
  0
LINE
  5
1E1
330
71
100
AcDbEntity
  8
Visible (ANSI)
100
AcDbLine
 10
134.3371405344864
 20
288.1394781014715
 30
0.0
 11
134.3371405344864
 21
289.3894781014715
 31
0.0
  0
LINE
  5
1E2
330
71
100
AcDbEntity
  8
Visible (ANSI)
100
AcDbLine
 10
134.3371405344864
 20
289.3894781014715
 30
0.0
 11
146.4371405344865
 21
289.3894781014715
 31
0.0
  0
LINE
  5
1E3
330
71
100
AcDbEntity
  8
Visible (ANSI)
100
AcDbLine
 10
146.4371405344864
 20
389.3894781014716
 30
0.0
 11
134.3371405344864
 21
389.3894781014715
 31
0.0
  0
LINE
  5
1E4
330
71
100
AcDbEntity
  8
Visible (ANSI)
100
AcDbLine
 10
134.3371405344864
 20
389.3894781014715
 30
0.0
 11
134.3371405344864
 21
390.6394781014715
 31
0.0
  0
LINE
  5
1E5
330
71
100
AcDbEntity
  8
Visible (ANSI)
100
AcDbLine
 10
62.5371405344865
 20
390.6394781014715
 30
0.0
 11
62.5371405344865
 21
389.3894781014715
 31
0.0
  0
CIRCLE
  5
1E6
330
71
100
AcDbEntity
  8
Visible (ANSI)
100
AcDbCircle
 10
61.43714053448649
 20
323.3894781014715
 30
0.0
 40
2.725
  0
CIRCLE
  5
1E7
330
71
100
AcDbEntity
  8
Visible (ANSI)
100
AcDbCircle
 10
143.4371405344864
 20
384.3894781014715
 30
0.0
 40
2.499999999999996
  0
CIRCLE
  5
1E8
330
71
100
AcDbEntity
  8
Visible (ANSI)
100
AcDbCircle
 10
53.4371405344865
 20
384.3894781014715
 30
0.0
 40
2.499999999999996
  0
CIRCLE
  5
1E9
330
71
100
AcDbEntity
  8
Visible (ANSI)
100
AcDbCircle
 10
135.4371405344864
 20
323.3894781014715
 30
0.0
 40
2.725
  0
CIRCLE
  5
1EA
330
71
100
AcDbEntity
  8
Visible (ANSI)
100
AcDbCircle
 10
61.43714053448649
 20
323.3894781014715
 30
0.0
 40
1.725
  0
CIRCLE
  5
1EB
330
71
100
AcDbEntity
  8
Visible (ANSI)
100
AcDbCircle
 10
135.4371405344864
 20
323.3894781014715
 30
0.0
 40
1.725
  0
CIRCLE
  5
1EC
330
71
100
AcDbEntity
  8
Visible (ANSI)
100
AcDbCircle
 10
143.4371405344864
 20
384.3894781014715
 30
0.0
 40
1.5
  0
CIRCLE
  5
1ED
330
71
100
AcDbEntity
  8
Visible (ANSI)
100
AcDbCircle
 10
53.4371405344865
 20
384.3894781014715
 30
0.0
 40
1.5
  0
LINE
  5
1EE
330
71
100
AcDbEntity
  8
Visible (ANSI)
100
AcDbLine
 10
62.5371405344865
 20
390.6394781014715
 30
0.0
 11
62.5371405344865
 21
392.6394781014715
 31
0.0
  0
LINE
  5
1EF
330
71
100
AcDbEntity
  8
Visible (ANSI)
100
AcDbLine
 10
134.3371405344864
 20
392.6394781014715
 30
0.0
 11
134.3371405344864
 21
390.6394781014715
 31
0.0
  0
LINE
  5
1F0
330
71
100
AcDbEntity
  8
Visible (ANSI)
100
AcDbLine
 10
134.3371405344864
 20
392.6394781014715
 30
0.0
 11
62.5371405344865
 21
392.6394781014715
 31
0.0
  0
LINE
  5
1F1
330
71
100
AcDbEntity
  8
Visible (ANSI)
100
AcDbLine
 10
134.3371405344864
 20
288.1394781014715
 30
0.0
 11
134.3371405344864
 21
286.1394781014715
 31
0.0
  0
LINE
  5
1F2
330
71
100
AcDbEntity
  8
Visible (ANSI)
100
AcDbLine
 10
62.5371405344865
 20
286.1394781014715
 30
0.0
 11
62.5371405344865
 21
288.1394781014715
 31
0.0
  0
LINE
  5
1F3
330
71
100
AcDbEntity
  8
Visible (ANSI)
100
AcDbLine
 10
62.5371405344865
 20
286.1394781014715
 30
0.0
 11
134.3371405344864
 21
286.1394781014715
 31
0.0
  0
CIRCLE
  5
1F4
330
71
100
AcDbEntity
  8
Visible (ANSI)
100
AcDbCircle
 10
116.4371405344864
 20
380.3894781014715
 30
0.0
 40
5.35
  0
SPLINE
  5
1F5
330
71
100
AcDbEntity
  8
Visible (ANSI)
100
AcDbSpline
210
0.0
220
0.0
230
1.0
 70
     8
 71
     3
 72
    14
 73
    10
 74
     0
 42
0.000000001
 43
0.0000000001
 40
-0.0029099584893888
 40
-0.0029099584893888
 40
-0.0029099584893888
 40
-0.0029099584893888
 40
0.0
 40
0.0
 40
0.1239226127919747
 40
0.1239226127919747
 40
0.2478452255828214
 40
0.2478452255828214
 40
0.2507551840721811
 40
0.2507551840721811
 40
0.2507551840721811
 40
0.2507551840721811
 10
115.1704564253902
 20
373.1494496921513
 30
0.0
 10
115.1801199362821
 20
373.1486107208113
 30
0.0
 10
115.1897842687142
 20
373.1477812788983
 30
0.0
 10
115.6110464461997
 20
373.112045059528
 30
0.0
 10
116.0237483769315
 20
373.0944638968114
 30
0.0
 10
116.8505326920375
 20
373.0944638968114
 30
0.0
 10
117.2632346227533
 20
373.1120450595263
 30
0.0
 10
117.6844968002591
 20
373.1477812788983
 30
0.0
 10
117.6941611326903
 20
373.1486107208113
 30
0.0
 10
117.7038246435826
 20
373.1494496921513
 30
0.0
  0
CIRCLE
  5
1F6
330
71
100
AcDbEntity
  8
Visible (ANSI)
100
AcDbCircle
 10
80.43714053448651
 20
380.3894781014715
 30
0.0
 40
5.35
  0
SPLINE
  5
1F7
330
71
100
AcDbEntity
  8
Visible (ANSI)
100
AcDbSpline
210
0.0
220
0.0
230
1.0
 70
     8
 71
     3
 72
    14
 73
    10
 74
     0
 42
0.000000001
 43
0.0000000001
 40
-0.0029099584894912
 40
-0.0029099584894912
 40
-0.0029099584894912
 40
-0.0029099584894912
 40
0.0
 40
0.0
 40
0.1239226127958228
 40
0.1239226127958228
 40
0.2478452255918493
 40
0.2478452255918493
 40
0.2507551840813091
 40
0.2507551840813091
 40
0.2507551840813091
 40
0.2507551840813091
 10
79.17045642539031
 20
373.1494496921513
 30
0.0
 10
79.18011993628249
 20
373.1486107208113
 30
0.0
 10
79.1897842687139
 20
373.1477812788983
 30
0.0
 10
79.61104644621258
 20
373.1120450595268
 30
0.0
 10
80.02374837693404
 20
373.0944638968114
 30
0.0
 10
80.85053269203966
 20
373.0944638968114
 30
0.0
 10
81.26323462276388
 20
373.1120450595272
 30
0.0
 10
81.68449680025888
 20
373.1477812788983
 30
0.0
 10
81.6941611326907
 20
373.1486107208113
 30
0.0
 10
81.70382464358269
 20
373.1494496921513
 30
0.0
  0
SPLINE
  5
1F8
330
71
100
AcDbEntity
  8
Hidden (ANSI)
 48
4.751308917999267
100
AcDbSpline
210
0.0
220
0.0
230
1.0
 70
     8
 71
     3
 72
    18
 73
    14
 74
     0
 42
0.000000001
 43
0.0000000001
 40
-0.0042252091662273
 40
-0.0042252091662273
 40
-0.0042252091662273
 40
-0.0042252091662273
 40
0.0
 40
0.0
 40
0.021875956711434
 40
0.021875956711434
 40
0.1205212929120982
 40
0.1205212929120982
 40
0.2191666291127613
 40
0.2191666291127613
 40
0.2410425858236169
 40
0.2410425858236169
 40
0.2452677949897609
 40
0.2452677949897609
 40
0.2452677949897609
 40
0.2452677949897609
 10
117.6828114461939
 20
373.3894781014715
 30
0.0
 10
117.6687819815899
 20
373.3882395379597
 30
0.0
 10
117.6547506911367
 20
373.3870217374473
 30
0.0
 10
117.5680616112765
 20
373.3796271803486
 30
0.0
 10
117.4953608724998
 20
373.3739870245508
 30
0.0
 10
117.094596445997
 20
373.3459965941607
 30
0.0
 10
116.7660697967183
 20
373.3344923061316
 30
0.0
 10
116.1082112722545
 20
373.3344923061316
 30
0.0
 10
115.779684622975
 20
373.3459965941607
 30
0.0
 10
115.3789201964756
 20
373.3739870245507
 30
0.0
 10
115.3062194577012
 20
373.3796271803482
 30
0.0
 10
115.2195303778352
 20
373.3870217374474
 30
0.0
 10
115.2054990873839
 20
373.3882395379596
 30
0.0
 10
115.1914696227789
 20
373.3894781014715
 30
0.0
  0
SPLINE
  5
1F9
330
71
100
AcDbEntity
  8
Hidden (ANSI)
 48
4.751308917999267
100
AcDbSpline
210
0.0
220
0.0
230
1.0
 70
     8
 71
     3
 72
    18
 73
    14
 74
     0
 42
0.000000001
 43
0.0000000001
 40
-0.0042252091663642
 40
-0.0042252091663642
 40
-0.0042252091663642
 40
-0.0042252091663642
 40
0.0
 40
0.0
 40
0.021875956712184
 40
0.021875956712184
 40
0.1205212929171795
 40
0.1205212929171795
 40
0.2191666291220545
 40
0.2191666291220545
 40
0.2410425858342772
 40
0.2410425858342772
 40
0.2452677950013073
 40
0.2452677950013073
 40
0.2452677950013073
 40
0.2452677950013073
 10
81.68281144619403
 20
373.3894781014715
 30
0.0
 10
81.66878198158954
 20
373.3882395379596
 30
0.0
 10
81.65475069113723
 20
373.3870217374474
 30
0.0
 10
81.56806161127409
 20
373.3796271803484
 30
0.0
 10
81.49536087249879
 20
373.3739870245508
 30
0.0
 10
81.09459644599731
 20
373.3459965941607
 30
0.0
 10
80.76606979671838
 20
373.3344923061316
 30
0.0
 10
80.10821127225501
 20
373.3344923061316
 30
0.0
 10
79.77968462297666
 20
373.3459965941606
 30
0.0
 10
79.3789201964747
 20
373.3739870245508
 30
0.0
 10
79.30621945770145
 20
373.3796271803482
 30
0.0
 10
79.21953037783317
 20
373.3870217374477
 30
0.0
 10
79.20549908738613
 20
373.3882395379595
 30
0.0
 10
79.19146962277896
 20
373.3894781014715
 30
0.0
  0
LINE
  5
1FA
330
71
100
AcDbEntity
  8
Visible (ANSI)
100
AcDbLine
 10
125.4371405344864
 20
371.3894781014715
 30
0.0
 11
107.2830435409635
 21
371.3894781014715
 31
0.0
  0
LINE
  5
1FB
330
71
100
AcDbEntity
  8
Visible (ANSI)
100
AcDbLine
 10
89.59123752800946
 20
371.3894781014715
 30
0.0
 11
71.43714053448649
 21
371.3894781014715
 31
0.0
  0
ARC
  5
1FC
330
71
100
AcDbEntity
  8
Visible (ANSI)
100
AcDbCircle
 10
66.43714053448651
 20
323.3894781014715
 30
0.0
 40
4.999999999999999
100
AcDbArc
 50
292.024312837042
 51
67.97568716295812
  0
ARC
  5
1FD
330
71
100
AcDbEntity
  8
Visible (ANSI)
100
AcDbCircle
 10
69.43714053448648
 20
315.9732796143758
 30
0.0
 40
2.999999999999998
100
AcDbArc
 50
112.0243128370419
 51
180.0
  0
ARC
  5
1FE
330
71
100
AcDbEntity
  8
Visible (ANSI)
100
AcDbCircle
 10
69.43714053448649
 20
330.8056765885672
 30
0.0
 40
3.000000000000002
100
AcDbArc
 50
180.0
 51
247.9756871629579
  0
LINE
  5
1FF
330
71
100
AcDbEntity
  8
Visible (ANSI)
100
AcDbLine
 10
66.43714053448649
 20
315.9732796143758
 30
0.0
 11
66.43714053448649
 21
312.3894781014715
 31
0.0
  0
LINE
  5
200
330
71
100
AcDbEntity
  8
Visible (ANSI)
100
AcDbLine
 10
66.43714053448649
 20
366.3894781014715
 30
0.0
 11
66.43714053448649
 21
330.8056765885672
 31
0.0
  0
ARC
  5
201
330
71
100
AcDbEntity
  8
Visible (ANSI)
100
AcDbCircle
 10
71.43714053448649
 20
312.3894781014715
 30
0.0
 40
5.0
100
AcDbArc
 50
180.0
 51
270.0000000000001
  0
ARC
  5
202
330
71
100
AcDbEntity
  8
Visible (ANSI)
100
AcDbCircle
 10
71.43714053448649
 20
366.3894781014715
 30
0.0
 40
5.000000000000017
100
AcDbArc
 50
90.00000000000007
 51
180.0
  0
LINE
  5
203
330
71
100
AcDbEntity
  8
Visible (ANSI)
100
AcDbLine
 10
71.43714053448649
 20
307.3894781014715
 30
0.0
 11
89.59123752800946
 21
307.3894781014715
 31
0.0
  0
ARC
  5
204
330
71
100
AcDbEntity
  8
Visible (ANSI)
100
AcDbCircle
 10
89.59123752800946
 20
304.3894781014715
 30
0.0
 40
2.999999999999998
100
AcDbArc
 50
21.70347221233833
 51
90.0
  0
ARC
  5
205
330
71
100
AcDbEntity
  8
Visible (ANSI)
100
AcDbCircle
 10
89.59123752800946
 20
374.3894781014715
 30
0.0
 40
2.999999999999998
100
AcDbArc
 50
270.0000000000003
 51
338.2965277876623
  0
ARC
  5
206
330
71
100
AcDbEntity
  8
Visible (ANSI)
100
AcDbCircle
 10
98.43714053448653
 20
307.9103114348048
 30
0.0
 40
6.52083333333333
100
AcDbArc
 50
201.7034722123379
 51
338.2965277876621
  0
ARC
  5
207
330
71
100
AcDbEntity
  8
Visible (ANSI)
100
AcDbCircle
 10
98.4371405344865
 20
370.8686447681381
 30
0.0
 40
6.520833333333327
100
AcDbArc
 50
21.70347221233794
 51
158.296527787662
  0
ARC
  5
208
330
71
100
AcDbEntity
  8
Visible (ANSI)
100
AcDbCircle
 10
107.2830435409635
 20
304.3894781014715
 30
0.0
 40
3.000000000000029
100
AcDbArc
 50
90.0
 51
158.2965277876619
  0
ARC
  5
209
330
71
100
AcDbEntity
  8
Visible (ANSI)
100
AcDbCircle
 10
107.2830435409635
 20
374.3894781014715
 30
0.0
 40
3.000000000000007
100
AcDbArc
 50
201.7034722123375
 51
270.0000000000003
  0
LINE
  5
20A
330
71
100
AcDbEntity
  8
Visible (ANSI)
100
AcDbLine
 10
107.2830435409635
 20
307.3894781014715
 30
0.0
 11
125.4371405344864
 21
307.3894781014715
 31
0.0
  0
ARC
  5
20B
330
71
100
AcDbEntity
  8
Visible (ANSI)
100
AcDbCircle
 10
125.4371405344864
 20
312.3894781014715
 30
0.0
 40
5.000000000000013
100
AcDbArc
 50
270.0
 51
0.0
  0
ARC
  5
20C
330
71
100
AcDbEntity
  8
Visible (ANSI)
100
AcDbCircle
 10
125.4371405344864
 20
366.3894781014715
 30
0.0
 40
5.000000000000013
100
AcDbArc
 50
0.0
 51
90.0
  0
LINE
  5
20D
330
71
100
AcDbEntity
  8
Visible (ANSI)
100
AcDbLine
 10
130.4371405344864
 20
312.3894781014715
 30
0.0
 11
130.4371405344864
 21
315.9732796143758
 31
0.0
  0
LINE
  5
20E
330
71
100
AcDbEntity
  8
Visible (ANSI)
100
AcDbLine
 10
130.4371405344864
 20
330.8056765885672
 30
0.0
 11
130.4371405344864
 21
366.3894781014715
 31
0.0
  0
ARC
  5
20F
330
71
100
AcDbEntity
  8
Visible (ANSI)
100
AcDbCircle
 10
127.4371405344864
 20
315.9732796143758
 30
0.0
 40
2.999999999999998
100
AcDbArc
 50
0.0
 51
67.97568716295803
  0
ARC
  5
210
330
71
100
AcDbEntity
  8
Visible (ANSI)
100
AcDbCircle
 10
127.4371405344864
 20
330.8056765885672
 30
0.0
 40
3.000000000000003
100
AcDbArc
 50
292.024312837042
 51
0.0
  0
ARC
  5
211
330
71
100
AcDbEntity
  8
Visible (ANSI)
100
AcDbCircle
 10
130.4371405344864
 20
323.3894781014715
 30
0.0
 40
5.0
100
AcDbArc
 50
112.0243128370419
 51
247.9756871629581
  0
LINE
  5
212
330
71
100
AcDbEntity
  8
Visible (ANSI)
100
AcDbLine
 10
233.064383198347
 20
293.6564800531722
 30
0.0
 11
230.3158118165835
 21
293.6564800531722
 31
0.0
  0
LINE
  5
213
330
71
100
AcDbEntity
  8
Visible (ANSI)
100
AcDbLine
 10
233.064383198347
 20
294.325051470358
 30
0.0
 11
233.064383198347
 21
293.6564800531722
 31
0.0
  0
LINE
  5
214
330
71
100
AcDbEntity
  8
Visible (ANSI)
100
AcDbLine
 10
231.4900975108712
 20
294.325051470358
 30
0.0
 11
233.064383198347
 21
294.325051470358
 31
0.0
  0
SPLINE
  5
215
330
71
100
AcDbEntity
  8
Visible (ANSI)
100
AcDbSpline
210
0.0
220
0.0
230
1.0
 70
     8
 71
     2
 72
     7
 73
     4
 74
     0
 42
0.000000001
 43
0.0000000001
 40
0.0
 40
0.0
 40
0.0
 40
1.0
 40
2.0
 40
2.0
 40
2.0
 10
232.2300974982691
 20
294.919337174523
 30
0.0
 10
232.0158117876326
 20
294.7221943207375
 30
0.0
 10
231.5815260807428
 20
294.3907657549531
 30
0.0
 10
231.4900975108712
 20
294.325051470358
 30
0.0
  0
SPLINE
  5
216
330
71
100
AcDbEntity
  8
Visible (ANSI)
100
AcDbSpline
210
0.0
220
0.0
230
1.0
 70
     8
 71
     2
 72
     7
 73
     4
 74
     0
 42
0.000000001
 43
0.0000000001
 40
0.0
 40
0.0
 40
0.0
 40
1.0
 40
2.0
 40
2.0
 40
2.0
 10
232.9015260582633
 20
296.1679085818314
 30
0.0
 10
232.9015260582633
 20
295.8336228732385
 30
0.0
 10
232.5700974924789
 20
295.236480026265
 30
0.0
 10
232.2300974982691
 20
294.919337174523
 30
0.0
  0
SPLINE
  5
217
330
71
100
AcDbEntity
  8
Visible (ANSI)
100
AcDbSpline
210
0.0
220
0.0
230
1.0
 70
     8
 71
     2
 72
     7
 73
     4
 74
     0
 42
0.000000001
 43
0.0000000001
 40
0.0
 40
0.0
 40
0.0
 40
1.0
 40
2.0
 40
2.0
 40
2.0
 10
231.5529546526579
 20
297.2250514209712
 30
0.0
 10
232.2100974986097
 20
297.2250514209712
 30
0.0
 10
232.9015260582633
 20
296.6736228589334
 30
0.0
 10
232.9015260582633
 20
296.1679085818314
 30
0.0
  0
SPLINE
  5
218
330
71
100
AcDbEntity
  8
Visible (ANSI)
100
AcDbSpline
210
0.0
220
0.0
230
1.0
 70
     8
 71
     2
 72
     7
 73
     4
 74
     0
 42
0.000000001
 43
0.0000000001
 40
0.0
 40
0.0
 40
0.0
 40
1.0
 40
2.0
 40
2.0
 40
2.0
 10
230.407240386455
 20
297.0050514247179
 30
0.0
 10
230.5729546693472
 20
297.0793371377384
 30
0.0
 10
231.224383229682
 20
297.2250514209712
 30
0.0
 10
231.5529546526579
 20
297.2250514209712
 30
0.0
  0
LINE
  5
219
330
71
100
AcDbEntity
  8
Visible (ANSI)
100
AcDbLine
 10
230.407240386455
 20
296.2279085808096
 30
0.0
 11
230.407240386455
 21
297.0050514247179
 31
0.0
  0
LINE
  5
21A
330
71
100
AcDbEntity
  8
Visible (ANSI)
100
AcDbLine
 10
230.4815260994757
 20
296.2279085808096
 30
0.0
 11
230.407240386455
 21
296.2279085808096
 31
0.0
  0
SPLINE
  5
21B
330
71
100
AcDbEntity
  8
Visible (ANSI)
100
AcDbSpline
210
0.0
220
0.0
230
1.0
 70
     8
 71
     2
 72
     7
 73
     4
 74
     0
 42
0.000000001
 43
0.0000000001
 40
0.0
 40
0.0
 40
0.0
 40
1.0
 40
2.0
 40
2.0
 40
2.0
 10
231.3815260841487
 20
296.5450514325516
 30
0.0
 10
231.1643832307038
 20
296.5450514325516
 30
0.0
 10
230.6872403816866
 20
296.3679085784254
 30
0.0
 10
230.4815260994756
 20
296.2279085808096
 30
0.0
  0
SPLINE
  5
21C
330
71
100
AcDbEntity
  8
Visible (ANSI)
100
AcDbSpline
210
0.0
220
0.0
230
1.0
 70
     8
 71
     2
 72
     7
 73
     4
 74
     0
 42
0.000000001
 43
0.0000000001
 40
0.0
 40
0.0
 40
0.0
 40
1.0
 40
2.0
 40
2.0
 40
2.0
 10
231.9786689311223
 20
296.0450514410666
 30
0.0
 10
231.9786689311223
 20
296.2850514369794
 30
0.0
 10
231.6700975078058
 20
296.5450514325516
 30
0.0
 10
231.3815260841487
 20
296.5450514325516
 30
0.0
  0
SPLINE
  5
21D
330
71
100
AcDbEntity
  8
Visible (ANSI)
100
AcDbSpline
210
0.0
220
0.0
230
1.0
 70
     8
 71
     2
 72
     7
 73
     4
 74
     0
 42
0.000000001
 43
0.0000000001
 40
0.0
 40
0.0
 40
0.0
 40
1.0
 40
2.0
 40
2.0
 40
2.0
 10
231.4529546543609
 20
295.1593371704358
 30
0.0
 10
231.7386689352095
 20
295.436480022859
 30
0.0
 10
231.9786689311223
 20
295.8450514444725
 30
0.0
 10
231.9786689311223
 20
296.0450514410666
 30
0.0
  0
SPLINE
  5
21E
330
71
100
AcDbEntity
  8
Visible (ANSI)
100
AcDbSpline
210
0.0
220
0.0
230
1.0
 70
     8
 71
     2
 72
     7
 73
     4
 74
     0
 42
0.000000001
 43
0.0000000001
 40
0.0
 40
0.0
 40
0.0
 40
1.0
 40
2.0
 40
2.0
 40
2.0
 10
230.3158118165835
 20
294.2336229004864
 30
0.0
 10
230.6300975255169
 20
294.4621943251653
 30
0.0
 10
231.2643832290008
 20
294.9736228878843
 30
0.0
 10
231.4529546543609
 20
295.1593371704358
 30
0.0
  0
LINE
  5
21F
330
71
100
AcDbEntity
  8
Visible (ANSI)
100
AcDbLine
 10
230.3158118165835
 20
293.6564800531722
 30
0.0
 11
230.3158118165835
 21
294.2336229004864
 31
0.0
  0
LINE
  5
220
330
71
100
AcDbEntity
  8
Visible (ANSI)
100
AcDbLine
 10
313.2564251173158
 20
390.2684179856509
 30
0.0
 11
313.2559322018793
 21
384.0954708234189
 31
0.0
  0
SPLINE
  5
221
330
71
100
AcDbEntity
  8
Visible (ANSI)
100
AcDbSpline
210
0.0
220
0.0
230
1.0
 70
     8
 71
     3
 72
    16
 73
    12
 74
     0
 42
0.000000001
 43
0.0000000001
 40
0.0
 40
0.0
 40
0.0
 40
0.0
 40
0.0585695070648259
 40
0.0585695070648259
 40
0.1171553867849816
 40
0.1171553867849816
 40
0.1757700215516903
 40
0.1757700215516903
 40
0.2349235446874062
 40
0.2349235446874062
 40
0.236403217947073
 40
0.236403217947073
 40
0.236403217947073
 40
0.236403217947073
 10
313.2559322018793
 20
384.0954708234189
 30
0.0
 10
313.2559322018793
 20
384.0954708234189
 30
0.0
 10
313.2940471160002
 20
384.094261727863
 30
0.0
 10
313.4422273769318
 20
384.0896917201732
 30
0.0
 10
313.5508934291055
 20
384.0863821388393
 30
0.0
 10
313.8251744831633
 20
384.0783480381635
 30
0.0
 10
313.9881966880537
 20
384.0737057464038
 30
0.0
 10
314.3492236695014
 20
384.0638310738955
 30
0.0
 10
314.5440292932315
 20
384.0586901458955
 30
0.0
 10
314.7460674321296
 20
384.0535435221767
 30
0.0
 10
314.750998119103
 20
384.0534180276053
 30
0.0
 10
314.7559288386951
 20
384.053292639074
 30
0.0
  0
ARC
  5
222
330
71
100
AcDbEntity
  8
Visible (ANSI)
100
AcDbCircle
 10
310.4333948884465
 20
384.2729335099861
 30
0.0
 40
2.828110657460933
100
AcDbArc
 50
273.5976482945968
 51
356.4023517054031
  0
SPLINE
  5
223
330
71
100
AcDbEntity
  8
Visible (ANSI)
100
AcDbSpline
210
0.0
220
0.0
230
1.0
 70
     8
 71
     3
 72
    16
 73
    12
 74
     0
 42
0.000000001
 43
0.0000000001
 40
-0.2349278593513366
 40
-0.2349278593513366
 40
-0.2349278593513366
 40
-0.2349278593513366
 40
-0.1763575946195047
 40
-0.1763575946195047
 40
-0.1177709153055127
 40
-0.1177709153055127
 40
-0.0591554072598011
 40
-0.0591554072598011
 40
0.0
 40
0.0
 40
0.0014788152828845
 40
0.0014788152828845
 40
0.0014788152828845
 40
0.0014788152828845
 10
310.6108575750138
 20
381.4503961965534
 30
0.0
 10
310.6108575750138
 20
381.4503961965534
 30
0.0
 10
310.6120651608604
 20
381.4122812771208
 30
0.0
 10
310.6166291340002
 20
381.2641009770703
 30
0.0
 10
310.6199342383809
 20
381.1554348478083
 30
0.0
 10
310.6279566364358
 20
380.8811534774955
 30
0.0
 10
310.6325918070226
 20
380.7181309617922
 30
0.0
 10
310.6424502755144
 20
380.3571002313681
 30
0.0
 10
310.6475822656113
 20
380.1622907275186
 30
0.0
 10
310.6527192966506
 20
379.9602517582263
 30
0.0
 10
310.6528444822828
 20
379.9553239936718
 30
0.0
 10
310.6529695618661
 20
379.9503961965533
 30
0.0
  0
LINE
  5
224
330
71
100
AcDbEntity
  8
Visible (ANSI)
100
AcDbLine
 10
310.6108575750138
 20
381.4503961965534
 30
0.0
 11
298.2514997441813
 21
381.4503961965534
 31
0.0
  0
SPLINE
  5
225
330
71
100
AcDbEntity
  8
Visible (ANSI)
100
AcDbSpline
210
0.0
220
0.0
230
1.0
 70
     8
 71
     3
 72
    16
 73
    12
 74
     0
 42
0.000000001
 43
0.0000000001
 40
0.0
 40
0.0
 40
0.0
 40
0.0
 40
0.0585694378466055
 40
0.0585694378466055
 40
0.117155290043623
 40
0.117155290043623
 40
0.1757699705653603
 40
0.1757699705653603
 40
0.234924542679541
 40
0.234924542679541
 40
0.2364033370845679
 40
0.2364033370845679
 40
0.2364033370845679
 40
0.2364033370845679
 10
298.2514997441813
 20
381.4503961965534
 30
0.0
 10
298.2514997441813
 20
381.4503961965534
 30
0.0
 10
298.2502921583346
 20
381.4122812771208
 30
0.0
 10
298.2457281851948
 20
381.2641009770704
 30
0.0
 10
298.2424230808142
 20
381.1554348478083
 30
0.0
 10
298.2344006827593
 20
380.8811534774955
 30
0.0
 10
298.2297655121724
 20
380.7181309617922
 30
0.0
 10
298.2199070436805
 20
380.3571002313664
 30
0.0
 10
298.2147750535708
 20
380.1622907275091
 30
0.0
 10
298.2096380225459
 20
379.9602517582272
 30
0.0
 10
298.2095128369104
 20
379.955323993671
 30
0.0
 10
298.2093877573273
 20
379.9503961965533
 30
0.0
  0
ARC
  5
226
330
71
100
AcDbEntity
  8
Visible (ANSI)
100
AcDbCircle
 10
298.4289624307485
 20
384.2729335099861
 30
0.0
 40
2.828110657460921
100
AcDbArc
 50
183.5976482946676
 51
266.4023517054053
  0
SPLINE
  5
227
330
71
100
AcDbEntity
  8
Visible (ANSI)
100
AcDbSpline
210
0.0
220
0.0
230
1.0
 70
     8
 71
     3
 72
    16
 73
    12
 74
     0
 42
0.000000001
 43
0.0000000001
 40
-0.2349278593497947
 40
-0.2349278593497947
 40
-0.2349278593497947
 40
-0.2349278593497947
 40
-0.1763575946185354
 40
-0.1763575946185354
 40
-0.1177709153048877
 40
-0.1177709153048877
 40
-0.0591554072595179
 40
-0.0591554072595179
 40
0.0
 40
0.0
 40
0.0014788152827708
 40
0.0014788152827708
 40
0.0014788152827708
 40
0.0014788152827708
 10
295.6064251173159
 20
384.0954708234154
 30
0.0
 10
295.6064251173159
 20
384.0954708234154
 30
0.0
 10
295.5683101978826
 20
384.0942632375737
 30
0.0
 10
295.4201298978325
 20
384.0896992644339
 30
0.0
 10
295.3114637685705
 20
384.0863941600535
 30
0.0
 10
295.0371823982576
 20
384.0783717619985
 30
0.0
 10
294.8741598825544
 20
384.0737365914117
 30
0.0
 10
294.5131291521302
 20
384.0638781229198
 30
0.0
 10
294.3183196482797
 20
384.058746132825
 30
0.0
 10
294.1162806789889
 20
384.0536091017838
 30
0.0
 10
294.1113529144337
 20
384.0534839161498
 30
0.0
 10
294.1064251173155
 20
384.0533588365667
 30
0.0
  0
LINE
  5
228
330
71
100
AcDbEntity
  8
Visible (ANSI)
100
AcDbLine
 10
295.6064251173159
 20
384.0954708234154
 30
0.0
 11
295.6064251173156
 21
393.518417985651
 31
0.0
  0
LINE
  5
229
330
71
100
AcDbEntity
  8
Visible (ANSI)
100
AcDbLine
 10
294.1064251173157
 20
393.518417985651
 30
0.0
 11
295.6064251173156
 21
393.518417985651
 31
0.0
  0
LINE
  5
22A
330
71
100
AcDbEntity
  8
Visible (ANSI)
100
AcDbLine
 10
313.2564251173158
 20
393.518417985651
 30
0.0
 11
314.7564251173158
 21
393.518417985651
 31
0.0
  0
LINE
  5
22B
330
71
100
AcDbEntity
  8
Visible (ANSI)
100
AcDbLine
 10
313.2564251173158
 20
393.5184179856509
 30
0.0
 11
313.2564251173158
 21
390.2684179856509
 31
0.0
  0
LINE
  5
22C
330
71
100
AcDbEntity
  8
Visible (ANSI)
100
AcDbLine
 10
323.1564251173157
 20
393.5184179856509
 30
0.0
 11
314.7564251173158
 21
393.5184179856509
 31
0.0
  0
LINE
  5
22D
330
71
100
AcDbEntity
  8
Visible (ANSI)
100
AcDbLine
 10
235.5564251173155
 20
393.5184179856509
 30
0.0
 11
227.1564251173151
 21
393.5184179856509
 31
0.0
  0
LINE
  5
22E
330
71
100
AcDbEntity
  8
Visible (ANSI)
100
AcDbLine
 10
294.1064251173157
 20
393.518417985651
 30
0.0
 11
288.7064251173157
 21
393.518417985651
 31
0.0
  0
LINE
  5
22F
330
71
100
AcDbEntity
  8
Visible (ANSI)
100
AcDbLine
 10
288.7064251173157
 20
393.518417985651
 30
0.0
 11
288.7064251173157
 21
390.2684179856509
 31
0.0
  0
LINE
  5
230
330
71
100
AcDbEntity
  8
Visible (ANSI)
100
AcDbLine
 10
288.7064251173157
 20
390.2684179856509
 30
0.0
 11
261.6064251173156
 21
390.2684179856509
 31
0.0
  0
LINE
  5
231
330
71
100
AcDbEntity
  8
Visible (ANSI)
100
AcDbLine
 10
261.6064251173156
 20
390.2684179856509
 30
0.0
 11
261.6064251173157
 21
393.518417985651
 31
0.0
  0
LINE
  5
232
330
71
100
AcDbEntity
  8
Visible (ANSI)
100
AcDbLine
 10
261.6064251173157
 20
393.518417985651
 30
0.0
 11
256.2064251173157
 21
393.518417985651
 31
0.0
  0
LINE
  5
233
330
71
100
AcDbEntity
  8
Visible (ANSI)
100
AcDbLine
 10
227.1564251173157
 20
287.018417985651
 30
0.0
 11
237.0564251173156
 21
287.018417985651
 31
0.0
  0
LINE
  5
234
330
71
100
AcDbEntity
  8
Visible (ANSI)
100
AcDbLine
 10
237.0564251173156
 20
287.018417985651
 30
0.0
 11
237.0564251173156
 21
290.2684179856509
 31
0.0
  0
LINE
  5
235
330
71
100
AcDbEntity
  8
Visible (ANSI)
100
AcDbLine
 10
237.0564251173156
 20
290.2684179856509
 30
0.0
 11
254.7064251173157
 21
290.2684179856509
 31
0.0
  0
LINE
  5
236
330
71
100
AcDbEntity
  8
Visible (ANSI)
100
AcDbLine
 10
254.7064251173157
 20
290.2684179856509
 30
0.0
 11
254.7064251173157
 21
287.018417985651
 31
0.0
  0
LINE
  5
237
330
71
100
AcDbEntity
  8
Visible (ANSI)
100
AcDbLine
 10
254.7064251173157
 20
287.018417985651
 30
0.0
 11
261.6064251173157
 21
287.018417985651
 31
0.0
  0
LINE
  5
238
330
71
100
AcDbEntity
  8
Visible (ANSI)
100
AcDbLine
 10
261.6064251173157
 20
287.018417985651
 30
0.0
 11
261.6064251173156
 21
290.2684179856509
 31
0.0
  0
LINE
  5
239
330
71
100
AcDbEntity
  8
Visible (ANSI)
100
AcDbLine
 10
261.6064251173156
 20
290.2684179856509
 30
0.0
 11
288.7064251173157
 21
290.2684179856509
 31
0.0
  0
LINE
  5
23A
330
71
100
AcDbEntity
  8
Visible (ANSI)
100
AcDbLine
 10
288.7064251173157
 20
290.2684179856509
 30
0.0
 11
288.7064251173157
 21
287.018417985651
 31
0.0
  0
LINE
  5
23B
330
71
100
AcDbEntity
  8
Visible (ANSI)
100
AcDbLine
 10
288.7064251173157
 20
287.018417985651
 30
0.0
 11
295.6064251173156
 21
287.018417985651
 31
0.0
  0
LINE
  5
23C
330
71
100
AcDbEntity
  8
Visible (ANSI)
100
AcDbLine
 10
295.6064251173156
 20
287.018417985651
 30
0.0
 11
295.6064251173156
 21
290.2684179856509
 31
0.0
  0
LINE
  5
23D
330
71
100
AcDbEntity
  8
Visible (ANSI)
100
AcDbLine
 10
295.6064251173156
 20
290.2684179856509
 30
0.0
 11
313.2564251173157
 21
290.268417985651
 31
0.0
  0
LINE
  5
23E
330
71
100
AcDbEntity
  8
Visible (ANSI)
100
AcDbLine
 10
313.2564251173157
 20
290.268417985651
 30
0.0
 11
313.2564251173158
 21
287.018417985651
 31
0.0
  0
LINE
  5
23F
330
71
100
AcDbEntity
  8
Visible (ANSI)
100
AcDbLine
 10
313.2564251173158
 20
287.018417985651
 30
0.0
 11
323.1564251173182
 21
287.018417985651
 31
0.0
  0
LINE
  5
240
330
71
100
AcDbEntity
  8
Visible (ANSI)
100
AcDbLine
 10
269.6564251173157
 20
324.9184179856509
 30
0.0
 11
266.7014251173157
 21
324.9184179856509
 31
0.0
  0
LINE
  5
241
330
71
100
AcDbEntity
  8
Visible (ANSI)
100
AcDbLine
 10
266.7014251173157
 20
324.9184179856509
 30
0.0
 11
266.7014251173157
 21
355.6184179856509
 31
0.0
  0
LINE
  5
242
330
71
100
AcDbEntity
  8
Visible (ANSI)
100
AcDbLine
 10
266.7014251173157
 20
355.6184179856509
 30
0.0
 11
269.6564251173157
 21
355.6184179856509
 31
0.0
  0
ARC
  5
243
330
71
100
AcDbEntity
  8
Visible (ANSI)
100
AcDbCircle
 10
275.1564251173157
 20
355.6184179856509
 30
0.0
 40
5.5
100
AcDbArc
 50
0.0
 51
180.0
  0
LINE
  5
244
330
71
100
AcDbEntity
  8
Visible (ANSI)
100
AcDbLine
 10
280.6564251173157
 20
355.6184179856509
 30
0.0
 11
283.6114251173157
 21
355.6184179856509
 31
0.0
  0
LINE
  5
245
330
71
100
AcDbEntity
  8
Visible (ANSI)
100
AcDbLine
 10
283.6114251173157
 20
355.6184179856509
 30
0.0
 11
283.6114251173157
 21
324.918417985651
 31
0.0
  0
LINE
  5
246
330
71
100
AcDbEntity
  8
Visible (ANSI)
100
AcDbLine
 10
283.6114251173157
 20
324.918417985651
 30
0.0
 11
280.6564251173157
 21
324.9184179856509
 31
0.0
  0
ARC
  5
247
330
71
100
AcDbEntity
  8
Visible (ANSI)
100
AcDbCircle
 10
275.1564251173157
 20
324.918417985651
 30
0.0
 40
5.5
100
AcDbArc
 50
180.0
 51
0.0
  0
LINE
  5
248
330
71
100
AcDbEntity
  8
Visible (ANSI)
100
AcDbLine
 10
270.0514251173157
 20
382.3184179856509
 30
0.0
 11
270.0514251173157
 21
362.2184179856509
 31
0.0
  0
LINE
  5
249
330
71
100
AcDbEntity
  8
Visible (ANSI)
100
AcDbLine
 10
270.0514251173157
 20
362.2184179856509
 30
0.0
 11
266.7014251173157
 21
362.2184179856509
 31
0.0
  0
LINE
  5
24A
330
71
100
AcDbEntity
  8
Visible (ANSI)
100
AcDbLine
 10
266.7014251173157
 20
362.2184179856509
 30
0.0
 11
266.7014251173157
 21
382.3184179856509
 31
0.0
  0
LINE
  5
24B
330
71
100
AcDbEntity
  8
Visible (ANSI)
100
AcDbLine
 10
266.7014251173157
 20
382.3184179856509
 30
0.0
 11
270.0514251173157
 21
382.3184179856509
 31
0.0
  0
LINE
  5
24C
330
71
100
AcDbEntity
  8
Visible (ANSI)
100
AcDbLine
 10
280.2614251173157
 20
382.3184179856509
 30
0.0
 11
283.6114251173157
 21
382.3184179856509
 31
0.0
  0
LINE
  5
24D
330
71
100
AcDbEntity
  8
Visible (ANSI)
100
AcDbLine
 10
283.6114251173157
 20
382.3184179856509
 30
0.0
 11
283.6114251173156
 21
362.2184179856509
 31
0.0
  0
LINE
  5
24E
330
71
100
AcDbEntity
  8
Visible (ANSI)
100
AcDbLine
 10
283.6114251173156
 20
362.2184179856509
 30
0.0
 11
280.2614251173157
 21
362.2184179856509
 31
0.0
  0
LINE
  5
24F
330
71
100
AcDbEntity
  8
Visible (ANSI)
100
AcDbLine
 10
280.2614251173157
 20
362.2184179856509
 30
0.0
 11
280.2614251173157
 21
382.3184179856509
 31
0.0
  0
LINE
  5
250
330
71
100
AcDbEntity
  8
Visible (ANSI)
100
AcDbLine
 10
266.7014251173156
 20
298.2184179856511
 30
0.0
 11
266.7014251173157
 21
318.318417985651
 31
0.0
  0
LINE
  5
251
330
71
100
AcDbEntity
  8
Visible (ANSI)
100
AcDbLine
 10
266.7014251173157
 20
318.318417985651
 30
0.0
 11
270.0514251173156
 21
318.318417985651
 31
0.0
  0
LINE
  5
252
330
71
100
AcDbEntity
  8
Visible (ANSI)
100
AcDbLine
 10
270.0514251173156
 20
318.318417985651
 30
0.0
 11
270.0514251173156
 21
298.218417985651
 31
0.0
  0
LINE
  5
253
330
71
100
AcDbEntity
  8
Visible (ANSI)
100
AcDbLine
 10
270.0514251173156
 20
298.218417985651
 30
0.0
 11
266.7014251173156
 21
298.2184179856511
 31
0.0
  0
LINE
  5
254
330
71
100
AcDbEntity
  8
Visible (ANSI)
100
AcDbLine
 10
280.2614251173157
 20
298.218417985651
 30
0.0
 11
280.2614251173157
 21
318.318417985651
 31
0.0
  0
LINE
  5
255
330
71
100
AcDbEntity
  8
Visible (ANSI)
100
AcDbLine
 10
280.2614251173157
 20
318.318417985651
 30
0.0
 11
283.6114251173157
 21
318.318417985651
 31
0.0
  0
LINE
  5
256
330
71
100
AcDbEntity
  8
Visible (ANSI)
100
AcDbLine
 10
283.6114251173157
 20
318.318417985651
 30
0.0
 11
283.6114251173157
 21
298.218417985651
 31
0.0
  0
LINE
  5
257
330
71
100
AcDbEntity
  8
Visible (ANSI)
100
AcDbLine
 10
283.6114251173157
 20
298.218417985651
 30
0.0
 11
280.2614251173157
 21
298.218417985651
 31
0.0
  0
LINE
  5
258
330
71
100
AcDbEntity
  8
Visible (ANSI)
100
AcDbLine
 10
232.6564251173157
 20
368.0184179856509
 30
0.0
 11
255.1564251173157
 21
368.0184179856509
 31
0.0
  0
LINE
  5
259
330
71
100
AcDbEntity
  8
Visible (ANSI)
100
AcDbLine
 10
255.1564251173157
 20
368.0184179856509
 30
0.0
 11
255.1564251173157
 21
355.618417985651
 31
0.0
  0
LINE
  5
25A
330
71
100
AcDbEntity
  8
Visible (ANSI)
100
AcDbLine
 10
255.1564251173157
 20
355.618417985651
 30
0.0
 11
232.6564251173157
 21
355.6184179856509
 31
0.0
  0
LINE
  5
25B
330
71
100
AcDbEntity
  8
Visible (ANSI)
100
AcDbLine
 10
232.6564251173157
 20
355.6184179856509
 30
0.0
 11
232.6564251173157
 21
368.0184179856509
 31
0.0
  0
LINE
  5
25C
330
71
100
AcDbEntity
  8
Visible (ANSI)
100
AcDbLine
 10
317.6564251173157
 20
368.0184179856509
 30
0.0
 11
317.6564251173157
 21
355.6184179856509
 31
0.0
  0
LINE
  5
25D
330
71
100
AcDbEntity
  8
Visible (ANSI)
100
AcDbLine
 10
317.6564251173157
 20
355.6184179856509
 30
0.0
 11
295.1564251173157
 21
355.618417985651
 31
0.0
  0
LINE
  5
25E
330
71
100
AcDbEntity
  8
Visible (ANSI)
100
AcDbLine
 10
295.1564251173157
 20
355.618417985651
 30
0.0
 11
295.1564251173157
 21
368.0184179856509
 31
0.0
  0
LINE
  5
25F
330
71
100
AcDbEntity
  8
Visible (ANSI)
100
AcDbLine
 10
295.1564251173157
 20
368.0184179856509
 30
0.0
 11
317.6564251173157
 21
368.0184179856509
 31
0.0
  0
LINE
  5
260
330
71
100
AcDbEntity
  8
Visible (ANSI)
100
AcDbLine
 10
323.1564251173156
 20
393.5184179856509
 30
0.0
 11
325.1564251173156
 21
393.5184179856509
 31
0.0
  0
LINE
  5
261
330
71
100
AcDbEntity
  8
Visible (ANSI)
100
AcDbLine
 10
225.1564251173151
 20
393.5184179856509
 30
0.0
 11
227.1564251173151
 21
393.5184179856509
 31
0.0
  0
LINE
  5
262
330
71
100
AcDbEntity
  8
Visible (ANSI)
100
AcDbLine
 10
325.1564251173156
 20
287.018417985651
 30
0.0
 11
325.1564251173156
 21
393.5184179856509
 31
0.0
  0
LINE
  5
263
330
71
100
AcDbEntity
  8
Visible (ANSI)
100
AcDbLine
 10
325.1564251173182
 20
287.0184179856512
 30
0.0
 11
323.1564251173182
 21
287.0184179856512
 31
0.0
  0
LINE
  5
264
330
71
100
AcDbEntity
  8
Visible (ANSI)
100
AcDbLine
 10
225.1564251173157
 20
393.5184179856509
 30
0.0
 11
225.1564251173157
 21
287.018417985651
 31
0.0
  0
LINE
  5
265
330
71
100
AcDbEntity
  8
Visible (ANSI)
100
AcDbLine
 10
227.1564251173157
 20
287.018417985651
 30
0.0
 11
225.1564251173156
 21
287.018417985651
 31
0.0
  0
LINE
  5
266
330
71
100
AcDbEntity
  8
Visible (ANSI)
100
AcDbLine
 10
254.7064251173157
 20
393.518417985651
 30
0.0
 11
254.7064251173157
 21
384.4503961965533
 31
0.0
  0
ARC
  5
267
330
71
100
AcDbEntity
  8
Visible (ANSI)
100
AcDbCircle
 10
251.8838878038828
 20
384.2729335099861
 30
0.0
 40
2.828110657460941
100
AcDbArc
 50
264.379754414056
 51
3.597648294593991
  0
LINE
  5
268
330
71
100
AcDbEntity
  8
Visible (ANSI)
100
AcDbLine
 10
251.6069180327519
 20
381.458417985651
 30
0.0
 11
240.1564251173157
 21
381.458417985651
 31
0.0
  0
ARC
  5
269
330
71
100
AcDbEntity
  8
Visible (ANSI)
100
AcDbCircle
 10
239.8794553461848
 20
384.2729335099861
 30
0.0
 40
2.828110657460948
100
AcDbArc
 50
183.4348252137717
 51
275.620245585944
  0
LINE
  5
26A
330
71
100
AcDbEntity
  8
Visible (ANSI)
100
AcDbLine
 10
237.0564251173157
 20
384.1034926125164
 30
0.0
 11
237.0564251173155
 21
393.5184179856509
 31
0.0
  0
LINE
  5
26B
330
71
100
AcDbEntity
  8
Visible (ANSI)
100
AcDbLine
 10
235.5564251173155
 20
393.5184179856509
 30
0.0
 11
237.0564251173155
 21
393.5184179856509
 31
0.0
  0
SPLINE
  5
26C
330
71
100
AcDbEntity
  8
Visible (ANSI)
100
AcDbSpline
210
0.0
220
0.0
230
1.0
 70
     8
 71
     3
 72
    16
 73
    12
 74
     0
 42
0.000000001
 43
0.0000000001
 40
0.0
 40
0.0
 40
0.0
 40
0.0
 40
0.0585302127093403
 40
0.0585302127093403
 40
0.1171004473387842
 40
0.1171004473387842
 40
0.1757410406749669
 40
0.1757410406749669
 40
0.2352632044683763
 40
0.2352632044683763
 40
0.2364687388789414
 40
0.2364687388789414
 40
0.2364687388789414
 40
0.2364687388789414
 10
251.6069180327519
 20
381.458417985651
 30
0.0
 10
251.6069180327519
 20
381.458417985651
 30
0.0
 10
251.6050332075405
 20
381.4203546809742
 30
0.0
 10
251.5979088649248
 20
381.2723586943986
 30
0.0
 10
251.5927482497926
 20
381.1637984531551
 30
0.0
 10
251.5802183833362
 20
380.8897009985908
 30
0.0
 10
251.5729757464646
 20
380.726712204926
 30
0.0
 10
251.5575270938646
 20
380.3646993854702
 30
0.0
 10
251.5494605213662
 20
380.1687154809723
 30
0.0
 10
251.5414271225144
 20
379.9664488244854
 30
0.0
 10
251.5412677544709
 20
379.9624334153144
 30
0.0
 10
251.5411084966054
 20
379.958417985651
 30
0.0
  0
SPLINE
  5
26D
330
71
100
AcDbEntity
  8
Visible (ANSI)
100
AcDbSpline
210
0.0
220
0.0
230
1.0
 70
     8
 71
     3
 72
    16
 73
    12
 74
     0
 42
0.000000001
 43
0.0000000001
 40
-0.0014788152824451
 40
-0.0014788152824451
 40
-0.0014788152824451
 40
-0.0014788152824451
 40
0.0
 40
0.0
 40
0.0591554072541891
 40
0.0591554072541891
 40
0.117770915293259
 40
0.117770915293259
 40
0.176357594600617
 40
0.176357594600617
 40
0.2349278593258074
 40
0.2349278593258074
 40
0.2349278593258074
 40
0.2349278593258074
 10
256.2064251173157
 20
384.4925081834071
 30
0.0
 10
256.2014973201987
 20
384.4923831038238
 30
0.0
 10
256.1965695556414
 20
384.4922579181869
 30
0.0
 10
255.9945305863686
 20
384.4871208871774
 30
0.0
 10
255.7997210825042
 20
384.481988897054
 30
0.0
 10
255.4386903520768
 20
384.472130428562
 30
0.0
 10
255.2756678363736
 20
384.4674952579751
 30
0.0
 10
255.0013864660607
 20
384.4594728599202
 30
0.0
 10
254.8927203367987
 20
384.4561677555395
 30
0.0
 10
254.7445400367484
 20
384.4516037823997
 30
0.0
 10
254.7064251173157
 20
384.4503961965533
 30
0.0
 10
254.7064251173157
 20
384.4503961965533
 30
0.0
  0
SPLINE
  5
26E
330
71
100
AcDbEntity
  8
Visible (ANSI)
100
AcDbSpline
210
0.0
220
0.0
230
1.0
 70
     8
 71
     3
 72
    16
 73
    12
 74
     0
 42
0.000000001
 43
0.0000000001
 40
-0.2352713182180185
 40
-0.2352713182180185
 40
-0.2352713182180185
 40
-0.2352713182180185
 40
-0.1767390869206334
 40
-0.1767390869206334
 40
-0.1181668323228686
 40
-0.1181668323228686
 40
-0.0595242165918333
 40
-0.0595242165918333
 40
0.0
 40
0.0
 40
0.0012055759869949
 40
0.0012055759869949
 40
0.0012055759869949
 40
0.0012055759869949
 10
240.1564251173157
 20
381.458417985651
 30
0.0
 10
240.1564251173157
 20
381.458417985651
 30
0.0
 10
240.1583099425271
 20
381.4203546809742
 30
0.0
 10
240.1654342851429
 20
381.2723586943986
 30
0.0
 10
240.170594900275
 20
381.1637984531551
 30
0.0
 10
240.1831247667315
 20
380.8897009985908
 30
0.0
 10
240.190367403603
 20
380.726712204926
 30
0.0
 10
240.205816056203
 20
380.3646993854702
 30
0.0
 10
240.2138826287014
 20
380.1687154809723
 30
0.0
 10
240.2219160275533
 20
379.9664488244854
 30
0.0
 10
240.2220753955967
 20
379.9624334153143
 30
0.0
 10
240.2222346534623
 20
379.958417985651
 30
0.0
  0
SPLINE
  5
26F
330
71
100
AcDbEntity
  8
Visible (ANSI)
100
AcDbSpline
210
0.0
220
0.0
230
1.0
 70
     8
 71
     3
 72
    16
 73
    12
 74
     0
 42
0.000000001
 43
0.0000000001
 40
-0.234891023044268
 40
-0.234891023044268
 40
-0.234891023044268
 40
-0.234891023044268
 40
-0.1763184223796651
 40
-0.1763184223796651
 40
-0.1177308584746618
 40
-0.1177308584746618
 40
-0.0591170163885217
 40
-0.0591170163885217
 40
0.0
 40
0.0
 40
0.0015111921119107
 40
0.0015111921119107
 40
0.0015111921119107
 40
0.0015111921119107
 10
237.0564251173157
 20
384.1034926125164
 30
0.0
 10
237.0564251173157
 20
384.1034926125164
 30
0.0
 10
237.0183070265273
 20
384.1023396173106
 30
0.0
 10
236.870115403035
 20
384.0979819950868
 30
0.0
 10
236.7614427707653
 20
384.0948263755416
 30
0.0
 10
236.4871501097562
 20
384.0871669547338
 30
0.0
 10
236.3241255283431
 20
384.0827416228027
 30
0.0
 10
235.9632034203501
 20
384.0733323818732
 30
0.0
 10
235.7685210055007
 20
384.068435843669
 30
0.0
 10
235.5664967400729
 20
384.0635315469229
 30
0.0
 10
235.561460945914
 20
384.0634094061948
 30
0.0
 10
235.5564251173158
 20
384.0632873711899
 30
0.0
  0
LINE
  5
270
330
71
100
AcDbEntity
  8
Visible (ANSI)
100
AcDbLine
 10
254.7064251173157
 20
393.518417985651
 30
0.0
 11
256.2064251173157
 21
393.518417985651
 31
0.0
  0
CIRCLE
  5
271
330
71
100
AcDbEntity
  8
Visible (ANSI)
100
AcDbCircle
 10
230.4064251173157
 20
361.8184179856509
 30
0.0
 40
1.1
  0
CIRCLE
  5
272
330
71
100
AcDbEntity
  8
Visible (ANSI)
100
AcDbCircle
 10
257.4064251173157
 20
361.8184179856509
 30
0.0
 40
1.1
  0
CIRCLE
  5
273
330
71
100
AcDbEntity
  8
Visible (ANSI)
100
AcDbCircle
 10
292.9064251173157
 20
361.8184179856509
 30
0.0
 40
1.1
  0
CIRCLE
  5
274
330
71
100
AcDbEntity
  8
Visible (ANSI)
100
AcDbCircle
 10
319.9064251173157
 20
361.8184179856509
 30
0.0
 40
1.1
  0
CIRCLE
  5
275
330
71
100
AcDbEntity
  8
Visible (ANSI)
100
AcDbCircle
 10
312.1564251173157
 20
324.268417985651
 30
0.0
 40
1.69
  0
CIRCLE
  5
276
330
71
100
AcDbEntity
  8
Visible (ANSI)
100
AcDbCircle
 10
238.1564251173157
 20
324.268417985651
 30
0.0
 40
1.69
  0
CIRCLE
  5
277
330
71
100
AcDbEntity
  8
Visible (ANSI)
100
AcDbCircle
 10
319.9064251173157
 20
361.8184179856509
 30
0.0
 40
2.099999999999996
  0
CIRCLE
  5
278
330
71
100
AcDbEntity
  8
Visible (ANSI)
100
AcDbCircle
 10
292.9064251173157
 20
361.8184179856509
 30
0.0
 40
2.1
  0
CIRCLE
  5
279
330
71
100
AcDbEntity
  8
Visible (ANSI)
100
AcDbCircle
 10
257.4064251173157
 20
361.8184179856509
 30
0.0
 40
2.1
  0
CIRCLE
  5
27A
330
71
100
AcDbEntity
  8
Visible (ANSI)
100
AcDbCircle
 10
238.1564251173157
 20
324.268417985651
 30
0.0
 40
2.690000000000001
  0
CIRCLE
  5
27B
330
71
100
AcDbEntity
  8
Visible (ANSI)
100
AcDbCircle
 10
230.4064251173157
 20
361.8184179856509
 30
0.0
 40
2.099999999999996
  0
CIRCLE
  5
27C
330
71
100
AcDbEntity
  8
Visible (ANSI)
100
AcDbCircle
 10
312.1564251173157
 20
324.268417985651
 30
0.0
 40
2.690000000000001
  0
SPLINE
  5
27D
330
71
100
AcDbEntity
  8
Visible (ANSI)
100
AcDbSpline
210
0.0
220
0.0
230
1.0
 70
     8
 71
     2
 72
     7
 73
     4
 74
     0
 42
0.000000001
 43
0.0000000001
 40
0.0
 40
0.0
 40
0.0
 40
1.0
 40
2.0
 40
2.0
 40
2.0
 10
397.962078850639
 20
298.9199048410084
 30
0.0
 10
398.0763645629784
 20
298.8199048427114
 30
0.0
 10
398.2135074177858
 20
298.5570477043307
 30
0.0
 10
398.2135074177858
 20
298.3399048508857
 30
0.0
  0
SPLINE
  5
27E
330
71
100
AcDbEntity
  8
Visible (ANSI)
100
AcDbSpline
210
0.0
220
0.0
230
1.0
 70
     8
 71
     2
 72
     7
 73
     4
 74
     0
 42
0.000000001
 43
0.0000000001
 40
0.0
 40
0.0
 40
0.0
 40
1.0
 40
2.0
 40
2.0
 40
2.0
 10
397.462078859154
 20
299.1284762660279
 30
0.0
 10
397.5820788571104
 20
299.111333409177
 30
0.0
 10
397.8506502811081
 20
299.0141905536884
 30
0.0
 10
397.962078850639
 20
298.9199048410084
 30
0.0
  0
LINE
  5
27F
330
71
100
AcDbEntity
  8
Visible (ANSI)
100
AcDbLine
 10
397.462078859154
 20
299.1627619797297
 30
0.0
 11
397.462078859154
 21
299.1284762660279
 31
0.0
  0
SPLINE
  5
280
330
71
100
AcDbEntity
  8
Visible (ANSI)
100
AcDbSpline
210
0.0
220
0.0
230
1.0
 70
     8
 71
     2
 72
     7
 73
     4
 74
     0
 42
0.000000001
 43
0.0000000001
 40
0.0
 40
0.0
 40
0.0
 40
1.0
 40
2.0
 40
2.0
 40
2.0
 10
398.1220788479142
 20
299.9770476801482
 30
0.0
 10
398.1220788479142
 20
299.6856191136826
 30
0.0
 10
397.7592217112365
 20
299.2256191215164
 30
0.0
 10
397.462078859154
 20
299.1627619797297
 30
0.0
  0
SPLINE
  5
281
330
71
100
AcDbEntity
  8
Visible (ANSI)
100
AcDbSpline
210
0.0
220
0.0
230
1.0
 70
     8
 71
     2
 72
     7
 73
     4
 74
     0
 42
0.000000001
 43
0.0000000001
 40
0.0
 40
0.0
 40
0.0
 40
1.0
 40
2.0
 40
2.0
 40
2.0
 10
397.7420788543856
 20
300.6427619545255
 30
0.0
 10
397.9335074225542
 20
300.5256190993776
 30
0.0
 10
398.1220788479142
 20
300.1970476764016
 30
0.0
 10
398.1220788479142
 20
299.9770476801482
 30
0.0
  0
SPLINE
  5
282
330
71
100
AcDbEntity
  8
Visible (ANSI)
100
AcDbSpline
210
0.0
220
0.0
230
1.0
 70
     8
 71
     2
 72
     7
 73
     4
 74
     0
 42
0.000000001
 43
0.0000000001
 40
0.0
 40
0.0
 40
0.0
 40
1.0
 40
2.0
 40
2.0
 40
2.0
 10
396.7477931570325
 20
300.8541905223534
 30
0.0
 10
397.0792217228169
 20
300.8541905223534
 30
0.0
 10
397.5792217143019
 20
300.739904810014
 30
0.0
 10
397.7420788543856
 20
300.6427619545255
 30
0.0
  0
SPLINE
  5
283
330
71
100
AcDbEntity
  8
Visible (ANSI)
100
AcDbSpline
210
0.0
220
0.0
230
1.0
 70
     8
 71
     2
 72
     7
 73
     4
 74
     0
 42
0.000000001
 43
0.0000000001
 40
0.0
 40
0.0
 40
0.0
 40
1.0
 40
2.0
 40
2.0
 40
2.0
 10
395.5506503202769
 20
300.6341905260999
 30
0.0
 10
395.7449360312539
 20
300.7113333819291
 30
0.0
 10
396.4077931628226
 20
300.8541905223534
 30
0.0
 10
396.7477931570325
 20
300.8541905223534
 30
0.0
  0
LINE
  5
284
330
71
100
AcDbEntity
  8
Visible (ANSI)
100
AcDbLine
 10
395.5506503202769
 20
299.8741905390427
 30
0.0
 11
395.5506503202769
 21
300.6341905260999
 31
0.0
  0
LINE
  5
285
330
71
100
AcDbEntity
  8
Visible (ANSI)
100
AcDbLine
 10
395.6363646045314
 20
299.8741905390427
 30
0.0
 11
395.5506503202769
 21
299.8741905390427
 31
0.0
  0
SPLINE
  5
286
330
71
100
AcDbEntity
  8
Visible (ANSI)
100
AcDbSpline
210
0.0
220
0.0
230
1.0
 70
     8
 71
     2
 72
     7
 73
     4
 74
     0
 42
0.000000001
 43
0.0000000001
 40
0.0
 40
0.0
 40
0.0
 40
1.0
 40
2.0
 40
2.0
 40
2.0
 10
396.6192217306506
 20
300.1713333911252
 30
0.0
 10
396.3963645915886
 20
300.1713333911252
 30
0.0
 10
395.8792217432527
 20
300.017047679467
 30
0.0
 10
395.6363646045314
 20
299.8741905390427
 30
0.0
  0
SPLINE
  5
287
330
71
100
AcDbEntity
  8
Visible (ANSI)
100
AcDbSpline
210
0.0
220
0.0
230
1.0
 70
     8
 71
     2
 72
     7
 73
     4
 74
     0
 42
0.000000001
 43
0.0000000001
 40
0.0
 40
0.0
 40
0.0
 40
1.0
 40
2.0
 40
2.0
 40
2.0
 10
397.0477931519235
 20
300.0999048209131
 30
0.0
 10
396.956364582052
 20
300.1427619630403
 30
0.0
 10
396.7077931577137
 20
300.1713333911252
 30
0.0
 10
396.6192217306506
 20
300.1713333911252
 30
0.0
  0
SPLINE
  5
288
330
71
100
AcDbEntity
  8
Visible (ANSI)
100
AcDbSpline
210
0.0
220
0.0
230
1.0
 70
     8
 71
     2
 72
     7
 73
     4
 74
     0
 42
0.000000001
 43
0.0000000001
 40
0.0
 40
0.0
 40
0.0
 40
1.0
 40
2.0
 40
2.0
 40
2.0
 10
397.239221720092
 20
299.8256191112984
 30
0.0
 10
397.239221720092
 20
299.9341905380209
 30
0.0
 10
397.1306502933696
 20
300.0627619644027
 30
0.0
 10
397.0477931519235
 20
300.0999048209131
 30
0.0
  0
SPLINE
  5
289
330
71
100
AcDbEntity
  8
Visible (ANSI)
100
AcDbSpline
210
0.0
220
0.0
230
1.0
 70
     8
 71
     2
 72
     7
 73
     4
 74
     0
 42
0.000000001
 43
0.0000000001
 40
0.0
 40
0.0
 40
0.0
 40
1.0
 40
2.0
 40
2.0
 40
2.0
 10
397.0335074378811
 20
299.4884762598971
 30
0.0
 10
397.1363645789866
 20
299.5341905448328
 30
0.0
 10
397.239221720092
 20
299.6827619708741
 30
0.0
 10
397.239221720092
 20
299.8256191112984
 30
0.0
  0
SPLINE
  5
28A
330
71
100
AcDbEntity
  8
Visible (ANSI)
100
AcDbSpline
210
0.0
220
0.0
230
1.0
 70
     8
 71
     2
 72
     7
 73
     4
 74
     0
 42
0.000000001
 43
0.0000000001
 40
0.0
 40
0.0
 40
0.0
 40
1.0
 40
2.0
 40
2.0
 40
2.0
 10
396.4677931618009
 20
299.4227619753019
 30
0.0
 10
396.6506503015439
 20
299.4227619753019
 30
0.0
 10
396.9335074395841
 20
299.4456191177698
 30
0.0
 10
397.0335074378811
 20
299.4884762598971
 30
0.0
  0
LINE
  5
28B
330
71
100
AcDbEntity
  8
Visible (ANSI)
100
AcDbLine
 10
396.2677931652068
 20
299.4227619753019
 30
0.0
 11
396.4677931618009
 21
299.4227619753019
 31
0.0
  0
LINE
  5
28C
330
71
100
AcDbEntity
  8
Visible (ANSI)
100
AcDbLine
 10
396.2677931652068
 20
298.7970477002435
 30
0.0
 11
396.2677931652068
 21
299.4227619753019
 31
0.0
  0
LINE
  5
28D
330
71
100
AcDbEntity
  8
Visible (ANSI)
100
AcDbLine
 10
396.4620788761839
 20
298.7970477002435
 30
0.0
 11
396.2677931652068
 21
298.7970477002435
 31
0.0
  0
SPLINE
  5
28E
330
71
100
AcDbEntity
  8
Visible (ANSI)
100
AcDbSpline
210
0.0
220
0.0
230
1.0
 70
     8
 71
     2
 72
     7
 73
     4
 74
     0
 42
0.000000001
 43
0.0000000001
 40
0.0
 40
0.0
 40
0.0
 40
1.0
 40
2.0
 40
2.0
 40
2.0
 10
397.039221723498
 20
298.7513334153078
 30
0.0
 10
396.9249360111586
 20
298.7913334146265
 30
0.0
 10
396.5992217309912
 20
298.7970477002435
 30
0.0
 10
396.4620788761839
 20
298.7970477002435
 30
0.0
  0
SPLINE
  5
28F
330
71
100
AcDbEntity
  8
Visible (ANSI)
100
AcDbSpline
210
0.0
220
0.0
230
1.0
 70
     8
 71
     2
 72
     7
 73
     4
 74
     0
 42
0.000000001
 43
0.0000000001
 40
0.0
 40
0.0
 40
0.0
 40
1.0
 40
2.0
 40
2.0
 40
2.0
 10
397.2963645762618
 20
298.3970477070554
 30
0.0
 10
397.2963645762618
 20
298.5513334187136
 30
0.0
 10
397.156364578646
 20
298.7170477016059
 30
0.0
 10
397.039221723498
 20
298.7513334153078
 30
0.0
  0
SPLINE
  5
290
330
71
100
AcDbEntity
  8
Visible (ANSI)
100
AcDbSpline
210
0.0
220
0.0
230
1.0
 70
     8
 71
     2
 72
     7
 73
     4
 74
     0
 42
0.000000001
 43
0.0000000001
 40
0.0
 40
0.0
 40
0.0
 40
1.0
 40
2.0
 40
2.0
 40
2.0
 10
397.1049360080932
 20
298.0141905707183
 30
0.0
 10
397.1935074351563
 20
298.0741905696965
 30
0.0
 10
397.2963645762618
 20
298.2399048525887
 30
0.0
 10
397.2963645762618
 20
298.3970477070554
 30
0.0
  0
SPLINE
  5
291
330
71
100
AcDbEntity
  8
Visible (ANSI)
100
AcDbSpline
210
0.0
220
0.0
230
1.0
 70
     8
 71
     2
 72
     7
 73
     4
 74
     0
 42
0.000000001
 43
0.0000000001
 40
0.0
 40
0.0
 40
0.0
 40
1.0
 40
2.0
 40
2.0
 40
2.0
 10
396.5392217320129
 20
297.8941905727619
 30
0.0
 10
396.6763645868203
 20
297.8941905727619
 30
0.0
 10
396.9963645813708
 20
297.9399048576976
 30
0.0
 10
397.1049360080932
 20
298.0141905707183
 30
0.0
  0
SPLINE
  5
292
330
71
100
AcDbEntity
  8
Visible (ANSI)
100
AcDbSpline
210
0.0
220
0.0
230
1.0
 70
     8
 71
     2
 72
     7
 73
     4
 74
     0
 42
0.000000001
 43
0.0000000001
 40
0.0
 40
0.0
 40
0.0
 40
1.0
 40
2.0
 40
2.0
 40
2.0
 10
395.5420788918514
 20
298.1941905676529
 30
0.0
 10
395.7449360312539
 20
298.071333426888
 30
0.0
 10
396.3077931645256
 20
297.8941905727619
 30
0.0
 10
396.5392217320129
 20
297.8941905727619
 30
0.0
  0
LINE
  5
293
330
71
100
AcDbEntity
  8
Visible (ANSI)
100
AcDbLine
 10
395.4506503219798
 20
298.1941905676529
 30
0.0
 11
395.5420788918514
 21
298.1941905676529
 31
0.0
  0
LINE
  5
294
330
71
100
AcDbEntity
  8
Visible (ANSI)
100
AcDbLine
 10
395.4506503219798
 20
297.4256191521702
 30
0.0
 11
395.4506503219798
 21
298.1941905676529
 31
0.0
  0
SPLINE
  5
295
330
71
100
AcDbEntity
  8
Visible (ANSI)
100
AcDbSpline
210
0.0
220
0.0
230
1.0
 70
     8
 71
     2
 72
     7
 73
     4
 74
     0
 42
0.000000001
 43
0.0000000001
 40
0.0
 40
0.0
 40
0.0
 40
1.0
 40
2.0
 40
2.0
 40
2.0
 10
396.7049360149052
 20
297.2056191559167
 30
0.0
 10
396.2677931652068
 20
297.2056191559167
 30
0.0
 10
395.6449360329569
 20
297.3427620107241
 30
0.0
 10
395.4506503219798
 20
297.4256191521702
 30
0.0
  0
SPLINE
  5
296
330
71
100
AcDbEntity
  8
Visible (ANSI)
100
AcDbSpline
210
0.0
220
0.0
230
1.0
 70
     8
 71
     2
 72
     7
 73
     4
 74
     0
 42
0.000000001
 43
0.0000000001
 40
0.0
 40
0.0
 40
0.0
 40
1.0
 40
2.0
 40
2.0
 40
2.0
 10
397.8163645674062
 20
297.5113334364248
 30
0.0
 10
397.6192217136207
 20
297.3627620103835
 30
0.0
 10
397.0849360084338
 20
297.2056191559167
 30
0.0
 10
396.7049360149052
 20
297.2056191559167
 30
0.0
  0
SPLINE
  5
297
330
71
100
AcDbEntity
  8
Visible (ANSI)
100
AcDbSpline
210
0.0
220
0.0
230
1.0
 70
     8
 71
     2
 72
     7
 73
     4
 74
     0
 42
0.000000001
 43
0.0000000001
 40
0.0
 40
0.0
 40
0.0
 40
1.0
 40
2.0
 40
2.0
 40
2.0
 10
398.2135074177858
 20
298.3399048508857
 30
0.0
 10
398.2135074177858
 20
298.0913334265474
 30
0.0
 10
398.0192217068088
 20
297.6627620052745
 30
0.0
 10
397.8163645674062
 20
297.5113334364248
 30
0.0
  0
CIRCLE
  5
298
330
71
100
AcDbEntity
  8
Visible (ANSI)
100
AcDbCircle
 10
442.1430297412792
 20
332.4919312835088
 30
0.0
 40
0.6
  0
CIRCLE
  5
299
330
71
100
AcDbEntity
  8
Visible (ANSI)
100
AcDbCircle
 10
427.1430297412792
 20
347.4919312835088
 30
0.0
 40
0.6
  0
CIRCLE
  5
29A
330
71
100
AcDbEntity
  8
Visible (ANSI)
100
AcDbCircle
 10
442.1430297412792
 20
362.4919312835089
 30
0.0
 40
0.6
  0
CIRCLE
  5
29B
330
71
100
AcDbEntity
  8
Visible (ANSI)
100
AcDbCircle
 10
457.1430297412792
 20
347.4919312835088
 30
0.0
 40
0.6
  0
CIRCLE
  5
29C
330
71
100
AcDbEntity
  8
Visible (ANSI)
100
AcDbCircle
 10
442.1430297412792
 20
332.4919312835088
 30
0.0
 40
1.6
  0
CIRCLE
  5
29D
330
71
100
AcDbEntity
  8
Visible (ANSI)
100
AcDbCircle
 10
457.1430297412792
 20
347.4919312835088
 30
0.0
 40
1.6
  0
CIRCLE
  5
29E
330
71
100
AcDbEntity
  8
Visible (ANSI)
100
AcDbCircle
 10
427.1430297412792
 20
347.4919312835088
 30
0.0
 40
1.6
  0
CIRCLE
  5
29F
330
71
100
AcDbEntity
  8
Visible (ANSI)
100
AcDbCircle
 10
442.1430297412792
 20
362.4919312835089
 30
0.0
 40
1.6
  0
CIRCLE
  5
2A0
330
71
100
AcDbEntity
  8
Visible (ANSI)
100
AcDbCircle
 10
401.5650297412793
 20
322.0439312835088
 30
0.0
 40
2.879599999999996
  0
CIRCLE
  5
2A1
330
71
100
AcDbEntity
  8
Visible (ANSI)
100
AcDbCircle
 10
482.7210297412791
 20
322.0439312835088
 30
0.0
 40
2.8796
  0
CIRCLE
  5
2A2
330
71
100
AcDbEntity
  8
Visible (ANSI)
100
AcDbCircle
 10
482.7210297412793
 20
380.5899312835089
 30
0.0
 40
2.8796
  0
CIRCLE
  5
2A3
330
71
100
AcDbEntity
  8
Visible (ANSI)
100
AcDbCircle
 10
401.5650297412793
 20
380.5899312835088
 30
0.0
 40
2.879599999999996
  0
CIRCLE
  5
2A4
330
71
100
AcDbEntity
  8
Visible (ANSI)
100
AcDbCircle
 10
482.7210297412793
 20
380.5899312835089
 30
0.0
 40
1.879599999999999
  0
CIRCLE
  5
2A5
330
71
100
AcDbEntity
  8
Visible (ANSI)
100
AcDbCircle
 10
482.7210297412791
 20
322.0439312835088
 30
0.0
 40
1.879599999999999
  0
CIRCLE
  5
2A6
330
71
100
AcDbEntity
  8
Visible (ANSI)
100
AcDbCircle
 10
401.5650297412793
 20
322.0439312835088
 30
0.0
 40
1.879599999999999
  0
CIRCLE
  5
2A7
330
71
100
AcDbEntity
  8
Visible (ANSI)
100
AcDbCircle
 10
401.5650297412793
 20
380.5899312835088
 30
0.0
 40
1.879599999999999
  0
LINE
  5
2A8
330
71
100
AcDbEntity
  8
Visible (ANSI)
100
AcDbLine
 10
450.4980297412792
 20
311.9919312835088
 30
0.0
 11
450.4980297412792
 21
299.4519292835088
 31
0.0
  0
LINE
  5
2A9
330
71
100
AcDbEntity
  8
Visible (ANSI)
100
AcDbLine
 10
450.4980297412792
 20
299.4519292835088
 30
0.0
 11
447.1480297412792
 21
299.4519292835088
 31
0.0
  0
LINE
  5
2AA
330
71
100
AcDbEntity
  8
Visible (ANSI)
100
AcDbLine
 10
447.1480297412792
 20
299.4519292835088
 30
0.0
 11
447.1480297412792
 21
311.9919312835088
 31
0.0
  0
LINE
  5
2AB
330
71
100
AcDbEntity
  8
Visible (ANSI)
100
AcDbLine
 10
447.1480297412792
 20
311.9919312835088
 30
0.0
 11
450.4980297412792
 21
311.9919312835088
 31
0.0
  0
LINE
  5
2AC
330
71
100
AcDbEntity
  8
Visible (ANSI)
100
AcDbLine
 10
437.1380297412792
 20
311.9919312835088
 30
0.0
 11
437.1380297412792
 21
299.4519292835088
 31
0.0
  0
LINE
  5
2AD
330
71
100
AcDbEntity
  8
Visible (ANSI)
100
AcDbLine
 10
437.1380297412792
 20
299.4519292835088
 30
0.0
 11
433.7880297412792
 21
299.4519292835088
 31
0.0
  0
LINE
  5
2AE
330
71
100
AcDbEntity
  8
Visible (ANSI)
100
AcDbLine
 10
433.7880297412792
 20
299.4519292835088
 30
0.0
 11
433.7880297412792
 21
311.9919312835088
 31
0.0
  0
LINE
  5
2AF
330
71
100
AcDbEntity
  8
Visible (ANSI)
100
AcDbLine
 10
433.7880297412792
 20
311.9919312835088
 30
0.0
 11
437.1380297412792
 21
311.9919312835088
 31
0.0
  0
LINE
  5
2B0
330
71
100
AcDbEntity
  8
Visible (ANSI)
100
AcDbLine
 10
421.5930297412792
 20
311.9919312835088
 30
0.0
 11
421.5930297412792
 21
315.3419312835089
 31
0.0
  0
LINE
  5
2B1
330
71
100
AcDbEntity
  8
Visible (ANSI)
100
AcDbLine
 10
421.5930297412792
 20
315.3419312835089
 30
0.0
 11
428.6930297412792
 21
315.3419312835089
 31
0.0
  0
LINE
  5
2B2
330
71
100
AcDbEntity
  8
Visible (ANSI)
100
AcDbLine
 10
428.6930297412792
 20
315.3419312835089
 30
0.0
 11
428.6930297412792
 21
311.9919312835088
 31
0.0
  0
LINE
  5
2B3
330
71
100
AcDbEntity
  8
Visible (ANSI)
100
AcDbLine
 10
428.6930297412792
 20
311.9919312835088
 30
0.0
 11
421.5930297412792
 21
311.9919312835088
 31
0.0
  0
LINE
  5
2B4
330
71
100
AcDbEntity
  8
Visible (ANSI)
100
AcDbLine
 10
462.6930297412792
 20
315.3419312835089
 30
0.0
 11
462.6930297412792
 21
311.9919312835088
 31
0.0
  0
LINE
  5
2B5
330
71
100
AcDbEntity
  8
Visible (ANSI)
100
AcDbLine
 10
462.6930297412792
 20
311.9919312835088
 30
0.0
 11
455.5930297412792
 21
311.9919312835088
 31
0.0
  0
LINE
  5
2B6
330
71
100
AcDbEntity
  8
Visible (ANSI)
100
AcDbLine
 10
455.5930297412792
 20
311.9919312835088
 30
0.0
 11
455.5930297412792
 21
315.3419312835089
 31
0.0
  0
LINE
  5
2B7
330
71
100
AcDbEntity
  8
Visible (ANSI)
100
AcDbLine
 10
455.5930297412792
 20
315.3419312835089
 30
0.0
 11
462.6930297412792
 21
315.3419312835089
 31
0.0
  0
LINE
  5
2B8
330
71
100
AcDbEntity
  8
Visible (ANSI)
100
AcDbLine
 10
490.3830581505994
 20
390.7419312835088
 30
0.0
 11
478.2430297412792
 21
390.7419312835088
 31
0.0
  0
LINE
  5
2B9
330
71
100
AcDbEntity
  8
Visible (ANSI)
100
AcDbLine
 10
478.2430297412792
 20
390.7419312835088
 30
0.0
 11
478.2430297412792
 21
387.4919312835089
 31
0.0
  0
LINE
  5
2BA
330
71
100
AcDbEntity
  8
Visible (ANSI)
100
AcDbLine
 10
478.2430297412792
 20
387.4919312835089
 30
0.0
 11
406.0430297412792
 21
387.4919312835089
 31
0.0
  0
LINE
  5
2BB
330
71
100
AcDbEntity
  8
Visible (ANSI)
100
AcDbLine
 10
406.0430297412792
 20
387.4919312835089
 30
0.0
 11
406.0430297412792
 21
390.7419312835088
 31
0.0
  0
LINE
  5
2BC
330
71
100
AcDbEntity
  8
Visible (ANSI)
100
AcDbLine
 10
406.0430297412792
 20
390.7419312835088
 30
0.0
 11
393.9030013319592
 21
390.7419312835088
 31
0.0
  0
LINE
  5
2BD
330
71
100
AcDbEntity
  8
Visible (ANSI)
100
AcDbLine
 10
393.9030013319591
 20
315.3419312835088
 30
0.0
 11
404.1930297412792
 21
315.3419312835089
 31
0.0
  0
LINE
  5
2BE
330
71
100
AcDbEntity
  8
Visible (ANSI)
100
AcDbLine
 10
404.1930297412792
 20
315.3419312835089
 30
0.0
 11
404.1930297412792
 21
311.9919312835088
 31
0.0
  0
LINE
  5
2BF
330
71
100
AcDbEntity
  8
Visible (ANSI)
100
AcDbLine
 10
404.1930297412792
 20
311.9919312835088
 30
0.0
 11
393.9030013319591
 21
311.9919312835088
 31
0.0
  0
LINE
  5
2C0
330
71
100
AcDbEntity
  8
Visible (ANSI)
100
AcDbLine
 10
393.9030013319591
 20
290.7419312835088
 30
0.0
 11
406.0430297412792
 21
290.7419312835088
 31
0.0
  0
LINE
  5
2C1
330
71
100
AcDbEntity
  8
Visible (ANSI)
100
AcDbLine
 10
406.0430297412792
 20
290.7419312835088
 30
0.0
 11
406.0430297412792
 21
293.9919312835088
 31
0.0
  0
LINE
  5
2C2
330
71
100
AcDbEntity
  8
Visible (ANSI)
100
AcDbLine
 10
406.0430297412792
 20
293.9919312835088
 30
0.0
 11
478.2430297412792
 21
293.9919312835089
 31
0.0
  0
LINE
  5
2C3
330
71
100
AcDbEntity
  8
Visible (ANSI)
100
AcDbLine
 10
478.2430297412792
 20
293.9919312835089
 30
0.0
 11
478.2430297412792
 21
290.7419312835088
 31
0.0
  0
LINE
  5
2C4
330
71
100
AcDbEntity
  8
Visible (ANSI)
100
AcDbLine
 10
478.2430297412792
 20
290.7419312835088
 30
0.0
 11
490.3830581505993
 21
290.7419312835088
 31
0.0
  0
LINE
  5
2C5
330
71
100
AcDbEntity
  8
Visible (ANSI)
100
AcDbLine
 10
490.3830581505993
 20
311.9919312835088
 30
0.0
 11
480.0930297412793
 21
311.9919312835088
 31
0.0
  0
LINE
  5
2C6
330
71
100
AcDbEntity
  8
Visible (ANSI)
100
AcDbLine
 10
480.0930297412793
 20
311.9919312835088
 30
0.0
 11
480.0930297412793
 21
315.3419312835089
 31
0.0
  0
LINE
  5
2C7
330
71
100
AcDbEntity
  8
Visible (ANSI)
100
AcDbLine
 10
480.0930297412793
 20
315.3419312835089
 30
0.0
 11
490.3830581505993
 21
315.3419312835088
 31
0.0
  0
LINE
  5
2C8
330
71
100
AcDbEntity
  8
Visible (ANSI)
100
AcDbLine
 10
490.3830581505994
 20
390.7419312835088
 30
0.0
 11
492.1430297412792
 21
390.7419312835088
 31
0.0
  0
LINE
  5
2C9
330
71
100
AcDbEntity
  8
Visible (ANSI)
100
AcDbLine
 10
492.1430297412792
 20
315.3419312835089
 30
0.0
 11
490.3830581505993
 21
315.3419312835089
 31
0.0
  0
LINE
  5
2CA
330
71
100
AcDbEntity
  8
Visible (ANSI)
100
AcDbLine
 10
492.1430297412792
 20
390.7419312835088
 30
0.0
 11
492.1430297412792
 21
315.3419312835089
 31
0.0
  0
LINE
  5
2CB
330
71
100
AcDbEntity
  8
Visible (ANSI)
100
AcDbLine
 10
393.9030013319591
 20
315.3419312835089
 30
0.0
 11
392.1430297412793
 21
315.3419312835089
 31
0.0
  0
LINE
  5
2CC
330
71
100
AcDbEntity
  8
Visible (ANSI)
100
AcDbLine
 10
392.1430297412793
 20
390.7419312835088
 30
0.0
 11
393.9030013319592
 21
390.7419312835088
 31
0.0
  0
LINE
  5
2CD
330
71
100
AcDbEntity
  8
Visible (ANSI)
100
AcDbLine
 10
392.1430297412793
 20
315.3419312835089
 30
0.0
 11
392.1430297412793
 21
390.7419312835088
 31
0.0
  0
LINE
  5
2CE
330
71
100
AcDbEntity
  8
Hidden (ANSI)
 48
7.276217937469482
100
AcDbLine
 10
492.1430297412792
 20
390.7419312835088
 30
0.0
 11
490.1430297412792
 21
388.7419312835088
 31
0.0
  0
LINE
  5
2CF
330
71
100
AcDbEntity
  8
Hidden (ANSI)
 48
7.276217937469482
100
AcDbLine
 10
394.1430297412793
 20
388.7419312835088
 30
0.0
 11
392.1430297412793
 21
390.7419312835088
 31
0.0
  0
LINE
  5
2D0
330
71
100
AcDbEntity
  8
Visible (ANSI)
100
AcDbLine
 10
490.3830581505993
 20
311.9919312835088
 30
0.0
 11
492.1430297412792
 21
311.9919312835088
 31
0.0
  0
LINE
  5
2D1
330
71
100
AcDbEntity
  8
Visible (ANSI)
100
AcDbLine
 10
492.1430297412792
 20
290.7419312835088
 30
0.0
 11
490.3830581505993
 21
290.7419312835088
 31
0.0
  0
LINE
  5
2D2
330
71
100
AcDbEntity
  8
Visible (ANSI)
100
AcDbLine
 10
492.1430297412792
 20
311.9919312835088
 30
0.0
 11
492.1430297412792
 21
290.7419312835088
 31
0.0
  0
LINE
  5
2D3
330
71
100
AcDbEntity
  8
Visible (ANSI)
100
AcDbLine
 10
393.9030013319591
 20
290.7419312835088
 30
0.0
 11
392.1430297412793
 21
290.7419312835088
 31
0.0
  0
LINE
  5
2D4
330
71
100
AcDbEntity
  8
Visible (ANSI)
100
AcDbLine
 10
392.1430297412793
 20
311.9919312835088
 30
0.0
 11
393.9030013319591
 21
311.9919312835088
 31
0.0
  0
LINE
  5
2D5
330
71
100
AcDbEntity
  8
Visible (ANSI)
100
AcDbLine
 10
392.1430297412793
 20
290.7419312835088
 30
0.0
 11
392.1430297412793
 21
311.9919312835088
 31
0.0
  0
LINE
  5
2D6
330
71
100
AcDbEntity
  8
Hidden (ANSI)
 48
7.276217937469482
100
AcDbLine
 10
490.1430297412791
 20
292.7419312835088
 30
0.0
 11
492.1430297412792
 21
290.7419312835088
 31
0.0
  0
LINE
  5
2D7
330
71
100
AcDbEntity
  8
Hidden (ANSI)
 48
7.276217937469482
100
AcDbLine
 10
392.1430297412793
 20
290.7419312835088
 30
0.0
 11
394.1430297412793
 21
292.7419312835088
 31
0.0
  0
LINE
  5
2D8
330
71
100
AcDbEntity
  8
Visible (ANSI)
100
AcDbLine
 10
413.2986195375673
 20
347.4919312835088
 30
0.0
 11
417.3236824492975
 21
347.4919312835088
 31
0.0
  0
ARC
  5
2D9
330
71
100
AcDbEntity
  8
Visible (ANSI)
100
AcDbCircle
 10
417.3236824492975
 20
350.4919312835088
 30
0.0
 40
2.999999999999992
100
AcDbArc
 50
270.0
 51
353.1078974206533
  0
ARC
  5
2DA
330
71
100
AcDbEntity
  8
Visible (ANSI)
100
AcDbCircle
 10
413.2986195375673
 20
350.4919312835088
 30
0.0
 40
2.999999999999985
100
AcDbArc
 50
174.0622275483945
 51
270.0
  0
ARC
  5
2DB
330
71
100
AcDbEntity
  8
Visible (ANSI)
100
AcDbCircle
 10
442.1430297412792
 20
347.4919312835088
 30
0.0
 40
22.0
100
AcDbArc
 50
6.892102579346422
 51
173.1078974206536
  0
ARC
  5
2DC
330
71
100
AcDbEntity
  8
Visible (ANSI)
100
AcDbCircle
 10
442.1430297412792
 20
347.4919312835088
 30
0.0
 40
32.00000000000001
100
AcDbArc
 50
5.937772451605322
 51
174.0622275483945
  0
ARC
  5
2DD
330
71
100
AcDbEntity
  8
Visible (ANSI)
100
AcDbCircle
 10
466.9623770332609
 20
350.4919312835088
 30
0.0
 40
3.000000000000001
100
AcDbArc
 50
186.8921025793467
 51
270.0000000000013
  0
ARC
  5
2DE
330
71
100
AcDbEntity
  8
Visible (ANSI)
100
AcDbCircle
 10
470.9874399449911
 20
350.4919312835088
 30
0.0
 40
2.99999999999998
100
AcDbArc
 50
270.0
 51
5.937772451605446
  0
LINE
  5
2DF
330
71
100
AcDbEntity
  8
Visible (ANSI)
100
AcDbLine
 10
466.9623770332609
 20
347.4919312835088
 30
0.0
 11
470.9874399449911
 21
347.4919312835088
 31
0.0
  0
SPLINE
  5
2E0
330
71
100
AcDbEntity
  8
Visible (ANSI)
100
AcDbSpline
210
0.0
220
0.0
230
1.0
 70
     8
 71
     2
 72
     7
 73
     4
 74
     0
 42
0.000000001
 43
0.0000000001
 40
0.0
 40
0.0
 40
0.0
 40
1.0
 40
2.0
 40
2.0
 40
2.0
 10
235.1545547058416
 20
218.641595581279
 30
0.0
 10
235.1545547058416
 20
218.3673098716643
 30
0.0
 10
234.9488404236306
 20
217.8987384510726
 30
0.0
 10
234.7545547126535
 20
217.7330241681804
 30
0.0
  0
SPLINE
  5
2E1
330
71
100
AcDbEntity
  8
Visible (ANSI)
100
AcDbSpline
210
0.0
220
0.0
230
1.0
 70
     8
 71
     2
 72
     7
 73
     4
 74
     0
 42
0.000000001
 43
0.0000000001
 40
0.0
 40
0.0
 40
0.0
 40
1.0
 40
2.0
 40
2.0
 40
2.0
 10
234.7002689992923
 20
219.5187384234842
 30
0.0
 10
234.9145547099288
 20
219.3873098542939
 30
0.0
 10
235.1545547058416
 20
218.9615955758294
 30
0.0
 10
235.1545547058416
 20
218.641595581279
 30
0.0
  0
SPLINE
  5
2E2
330
71
100
AcDbEntity
  8
Visible (ANSI)
100
AcDbSpline
210
0.0
220
0.0
230
1.0
 70
     8
 71
     2
 72
     7
 73
     4
 74
     0
 42
0.000000001
 43
0.0000000001
 40
0.0
 40
0.0
 40
0.0
 40
1.0
 40
2.0
 40
2.0
 40
2.0
 10
233.7916975861938
 20
219.7273098485037
 30
0.0
 10
234.0831261526593
 20
219.7273098485037
 30
0.0
 10
234.5374118592086
 20
219.6158812789727
 30
0.0
 10
234.7002689992923
 20
219.5187384234842
 30
0.0
  0
SPLINE
  5
2E3
330
71
100
AcDbEntity
  8
Visible (ANSI)
100
AcDbSpline
210
0.0
220
0.0
230
1.0
 70
     8
 71
     2
 72
     7
 73
     4
 74
     0
 42
0.000000001
 43
0.0000000001
 40
0.0
 40
0.0
 40
0.0
 40
1.0
 40
2.0
 40
2.0
 40
2.0
 10
233.4116975926651
 20
219.7158812772697
 30
0.0
 10
233.4859833056857
 20
219.7215955628867
 30
0.0
 10
233.7088404447476
 20
219.7273098485037
 30
0.0
 10
233.7916975861938
 20
219.7273098485037
 30
0.0
  0
LINE
  5
2E4
330
71
100
AcDbEntity
  8
Visible (ANSI)
100
AcDbLine
 10
233.4116975926651
 20
220.287309838967
 30
0.0
 11
233.4116975926651
 21
219.7158812772697
 31
0.0
  0
LINE
  5
2E5
330
71
100
AcDbEntity
  8
Visible (ANSI)
100
AcDbLine
 10
235.0545547075446
 20
220.287309838967
 30
0.0
 11
233.4116975926651
 21
220.287309838967
 31
0.0
  0
LINE
  5
2E6
330
71
100
AcDbEntity
  8
Visible (ANSI)
100
AcDbLine
 10
235.0545547075446
 20
220.9558812561526
 30
0.0
 11
235.0545547075446
 21
220.287309838967
 31
0.0
  0
LINE
  5
2E7
330
71
100
AcDbEntity
  8
Visible (ANSI)
100
AcDbLine
 10
232.5631261785447
 20
220.9558812561526
 30
0.0
 11
235.0545547075446
 21
220.9558812561526
 31
0.0
  0
LINE
  5
2E8
330
71
100
AcDbEntity
  8
Visible (ANSI)
100
AcDbLine
 10
232.5631261785447
 20
218.9815955754888
 30
0.0
 11
232.5631261785447
 21
220.9558812561526
 31
0.0
  0
LINE
  5
2E9
330
71
100
AcDbEntity
  8
Visible (ANSI)
100
AcDbLine
 10
232.6659833196503
 20
218.9815955754888
 30
0.0
 11
232.5631261785447
 21
218.9815955754888
 31
0.0
  0
SPLINE
  5
2EA
330
71
100
AcDbEntity
  8
Visible (ANSI)
100
AcDbSpline
210
0.0
220
0.0
230
1.0
 70
     8
 71
     2
 72
     7
 73
     4
 74
     0
 42
0.000000001
 43
0.0000000001
 40
0.0
 40
0.0
 40
0.0
 40
1.0
 40
2.0
 40
2.0
 40
2.0
 10
233.4116975926651
 20
219.0901670022113
 30
0.0
 10
233.2002690248371
 20
219.0901670022113
 30
0.0
 10
232.811697602883
 20
219.0158812891906
 30
0.0
 10
232.6659833196503
 20
218.9815955754888
 30
0.0
  0
SPLINE
  5
2EB
330
71
100
AcDbEntity
  8
Visible (ANSI)
100
AcDbSpline
210
0.0
220
0.0
230
1.0
 70
     8
 71
     2
 72
     7
 73
     4
 74
     0
 42
0.000000001
 43
0.0000000001
 40
0.0
 40
0.0
 40
0.0
 40
1.0
 40
2.0
 40
2.0
 40
2.0
 10
234.0431261533405
 20
218.9615955758294
 30
0.0
 10
233.9145547269586
 20
219.041595574467
 30
0.0
 10
233.5574118758979
 20
219.0901670022113
 30
0.0
 10
233.4116975926651
 20
219.0901670022113
 30
0.0
  0
SPLINE
  5
2EC
330
71
100
AcDbEntity
  8
Visible (ANSI)
100
AcDbSpline
210
0.0
220
0.0
230
1.0
 70
     8
 71
     2
 72
     7
 73
     4
 74
     0
 42
0.000000001
 43
0.0000000001
 40
0.0
 40
0.0
 40
0.0
 40
1.0
 40
2.0
 40
2.0
 40
2.0
 10
234.240269007126
 20
218.6101670103857
 30
0.0
 10
234.240269007126
 20
218.7330241511505
 30
0.0
 10
234.1288404375951
 20
218.9101670052767
 30
0.0
 10
234.0431261533405
 20
218.9615955758294
 30
0.0
  0
SPLINE
  5
2ED
330
71
100
AcDbEntity
  8
Visible (ANSI)
100
AcDbSpline
210
0.0
220
0.0
230
1.0
 70
     8
 71
     2
 72
     7
 73
     4
 74
     0
 42
0.000000001
 43
0.0000000001
 40
0.0
 40
0.0
 40
0.0
 40
1.0
 40
2.0
 40
2.0
 40
2.0
 10
234.0774118670424
 20
218.2273098740485
 30
0.0
 10
234.1574118656799
 20
218.3015955870691
 30
0.0
 10
234.240269007126
 20
218.4530241559189
 30
0.0
 10
234.240269007126
 20
218.6101670103857
 30
0.0
  0
SPLINE
  5
2EE
330
71
100
AcDbEntity
  8
Visible (ANSI)
100
AcDbSpline
210
0.0
220
0.0
230
1.0
 70
     8
 71
     2
 72
     7
 73
     4
 74
     0
 42
0.000000001
 43
0.0000000001
 40
0.0
 40
0.0
 40
0.0
 40
1.0
 40
2.0
 40
2.0
 40
2.0
 10
233.4831261628773
 20
218.0701670195818
 30
0.0
 10
233.6316975889185
 20
218.0701670195818
 30
0.0
 10
233.9774118687453
 20
218.1387384469855
 30
0.0
 10
234.0774118670424
 20
218.2273098740485
 30
0.0
  0
SPLINE
  5
2EF
330
71
100
AcDbEntity
  8
Visible (ANSI)
100
AcDbSpline
210
0.0
220
0.0
230
1.0
 70
     8
 71
     2
 72
     7
 73
     4
 74
     0
 42
0.000000001
 43
0.0000000001
 40
0.0
 40
0.0
 40
0.0
 40
1.0
 40
2.0
 40
2.0
 40
2.0
 10
232.5316976076514
 20
218.3673098716643
 30
0.0
 10
232.7431261754794
 20
218.2387384452825
 30
0.0
 10
233.2374118813475
 20
218.0701670195818
 30
0.0
 10
233.4831261628773
 20
218.0701670195818
 30
0.0
  0
LINE
  5
2F0
330
71
100
AcDbEntity
  8
Visible (ANSI)
100
AcDbLine
 10
232.4316976093544
 20
218.3673098716643
 30
0.0
 11
232.5316976076514
 21
218.3673098716643
 31
0.0
  0
LINE
  5
2F1
330
71
100
AcDbEntity
  8
Visible (ANSI)
100
AcDbLine
 10
232.4316976093544
 20
217.5930241705646
 30
0.0
 11
232.4316976093544
 21
218.3673098716643
 31
0.0
  0
SPLINE
  5
2F2
330
71
100
AcDbEntity
  8
Visible (ANSI)
100
AcDbSpline
210
0.0
220
0.0
230
1.0
 70
     8
 71
     2
 72
     7
 73
     4
 74
     0
 42
0.000000001
 43
0.0000000001
 40
0.0
 40
0.0
 40
0.0
 40
1.0
 40
2.0
 40
2.0
 40
2.0
 10
233.6174118748761
 20
217.3815956027366
 30
0.0
 10
233.1945547392202
 20
217.3844527455452
 30
0.0
 10
232.6145547490975
 20
217.513024171927
 30
0.0
 10
232.4316976093544
 20
217.5930241705646
 30
0.0
  0
SPLINE
  5
2F3
330
71
100
AcDbEntity
  8
Visible (ANSI)
100
AcDbSpline
210
0.0
220
0.0
230
1.0
 70
     8
 71
     2
 72
     7
 73
     4
 74
     0
 42
0.000000001
 43
0.0000000001
 40
0.0
 40
0.0
 40
0.0
 40
1.0
 40
2.0
 40
2.0
 40
2.0
 10
234.7545547126535
 20
217.7330241681804
 30
0.0
 10
234.5374118592086
 20
217.5530241712458
 30
0.0
 10
233.9774118687453
 20
217.3815956027366
 30
0.0
 10
233.6174118748761
 20
217.3815956027366
 30
0.0
  0
ARC
  5
2F4
330
71
100
AcDbEntity
  8
Visible (ANSI)
100
AcDbCircle
 10
278.5725117001039
 20
176.6955444568727
 30
0.0
 40
0.8999999999999726
100
AcDbArc
 50
90.0
 51
180.0
  0
LINE
  5
2F5
330
71
100
AcDbEntity
  8
Visible (ANSI)
100
AcDbLine
 10
278.5725117001039
 20
177.5955444568727
 30
0.0
 11
278.9725117001039
 21
177.5955444568727
 31
0.0
  0
ARC
  5
2F6
330
71
100
AcDbEntity
  8
Visible (ANSI)
100
AcDbCircle
 10
278.9725117001039
 20
176.6955444568726
 30
0.0
 40
0.8999999999999985
100
AcDbArc
 50
0.0
 51
90.0
  0
LINE
  5
2F7
330
71
100
AcDbEntity
  8
Visible (ANSI)
100
AcDbLine
 10
279.8725117001039
 20
176.6955444568726
 30
0.0
 11
279.8725117001039
 21
163.2955444568727
 31
0.0
  0
LINE
  5
2F8
330
71
100
AcDbEntity
  8
Visible (ANSI)
100
AcDbLine
 10
288.7121886013542
 20
183.184774941414
 30
0.0
 11
300.3169290120658
 21
176.4847749414139
 31
0.0
  0
ARC
  5
2F9
330
71
100
AcDbEntity
  8
Visible (ANSI)
100
AcDbCircle
 10
299.8669290120657
 20
175.705352078008
 30
0.0
 40
0.8999999999999864
100
AcDbArc
 50
330.0000000000005
 51
60.00000000000042
  0
LINE
  5
2FA
330
71
100
AcDbEntity
  8
Visible (ANSI)
100
AcDbLine
 10
300.6463518754717
 20
175.255352078008
 30
0.0
 11
300.4463518754717
 21
174.9089419164942
 31
0.0
  0
ARC
  5
2FB
330
71
100
AcDbEntity
  8
Visible (ANSI)
100
AcDbCircle
 10
299.6669290120657
 20
175.3589419164942
 30
0.0
 40
0.8999999999999641
100
AcDbArc
 50
239.9999999999973
 51
330.0000000000005
  0
ARC
  5
2FC
330
71
100
AcDbEntity
  8
Visible (ANSI)
100
AcDbCircle
 10
299.5669290120659
 20
200.005352078008
 30
0.0
 40
0.8999999999999904
100
AcDbArc
 50
29.99999999999956
 51
119.9999999999995
  0
LINE
  5
2FD
330
71
100
AcDbEntity
  8
Visible (ANSI)
100
AcDbLine
 10
300.3463518754718
 20
200.4553520780079
 30
0.0
 11
300.5463518754718
 21
200.1089419164942
 31
0.0
  0
ARC
  5
2FE
330
71
100
AcDbEntity
  8
Visible (ANSI)
100
AcDbCircle
 10
299.7669290120658
 20
199.6589419164942
 30
0.0
 40
0.8999999999999603
100
AcDbArc
 50
299.9999999999996
 51
29.99999999999957
  0
LINE
  5
2FF
330
71
100
AcDbEntity
  8
Visible (ANSI)
100
AcDbLine
 10
300.2169290120658
 20
198.8795190530882
 30
0.0
 11
288.6121886013543
 21
192.1795190530882
 31
0.0
  0
ARC
  5
300
330
71
100
AcDbEntity
  8
Visible (ANSI)
100
AcDbCircle
 10
278.3725117001039
 20
211.8955444568727
 30
0.0
 40
0.8999999999999912
100
AcDbArc
 50
90.0
 51
180.0
  0
LINE
  5
301
330
71
100
AcDbEntity
  8
Visible (ANSI)
100
AcDbLine
 10
278.3725117001039
 20
212.7955444568727
 30
0.0
 11
278.7725117001039
 21
212.7955444568727
 31
0.0
  0
ARC
  5
302
330
71
100
AcDbEntity
  8
Visible (ANSI)
100
AcDbCircle
 10
278.7725117001039
 20
211.8955444568727
 30
0.0
 40
0.899999999999963
100
AcDbArc
 50
0.0
 51
90.0
  0
LINE
  5
303
330
71
100
AcDbEntity
  8
Visible (ANSI)
100
AcDbLine
 10
279.6725117001039
 20
211.8955444568727
 30
0.0
 11
279.6725117001039
 21
198.4955444568726
 31
0.0
  0
LINE
  5
304
330
71
100
AcDbEntity
  8
Visible (ANSI)
100
AcDbLine
 10
258.1280943881421
 20
200.6115698606572
 30
0.0
 11
269.7328347988535
 21
193.9115698606571
 31
0.0
  0
ARC
  5
305
330
71
100
AcDbEntity
  8
Visible (ANSI)
100
AcDbCircle
 10
269.2828347988536
 20
193.1321469972511
 30
0.0
 40
0.8999999999999722
100
AcDbArc
 50
329.9999999999985
 51
60.00000000000347
  0
LINE
  5
306
330
71
100
AcDbEntity
  8
Visible (ANSI)
100
AcDbLine
 10
270.0622576622595
 20
192.6821469972511
 30
0.0
 11
269.8622576622595
 21
192.3357368357374
 31
0.0
  0
ARC
  5
307
330
71
100
AcDbEntity
  8
Visible (ANSI)
100
AcDbCircle
 10
269.0828347988536
 20
192.7857368357374
 30
0.0
 40
0.9000000000000017
100
AcDbArc
 50
239.9999999999985
 51
329.9999999999985
  0
ARC
  5
308
330
71
100
AcDbEntity
  8
Visible (ANSI)
100
AcDbCircle
 10
269.1828347988535
 20
182.2321469972512
 30
0.0
 40
0.899999999999974
100
AcDbArc
 50
29.99999999999843
 51
120.0000000000015
  0
LINE
  5
309
330
71
100
AcDbEntity
  8
Visible (ANSI)
100
AcDbLine
 10
269.9622576622596
 20
182.6821469972511
 30
0.0
 11
270.1622576622595
 21
182.3357368357374
 31
0.0
  0
ARC
  5
30A
330
71
100
AcDbEntity
  8
Visible (ANSI)
100
AcDbCircle
 10
269.3828347988535
 20
181.8857368357374
 30
0.0
 40
0.8999999999999984
100
AcDbArc
 50
299.9999999999985
 51
29.99999999999845
  0
LINE
  5
30B
330
71
100
AcDbEntity
  8
Visible (ANSI)
100
AcDbLine
 10
269.8328347988535
 20
181.1063139723314
 30
0.0
 11
258.228094388142
 21
174.4063139723314
 31
0.0
  0
LINE
  5
30C
330
71
100
AcDbEntity
  8
Visible (ANSI)
100
AcDbLine
 10
280.8725117001039
 20
163.2955444568727
 30
0.0
 11
280.8725117001039
 21
176.6955444568726
 31
0.0
  0
ARC
  5
30D
330
71
100
AcDbEntity
  8
Visible (ANSI)
100
AcDbCircle
 10
278.9725117001039
 20
163.2955444568727
 30
0.0
 40
1.899999999999986
100
AcDbArc
 50
270.0
 51
0.0
  0
ARC
  5
30E
330
71
100
AcDbEntity
  8
Visible (ANSI)
100
AcDbCircle
 10
278.9725117001039
 20
163.2955444568727
 30
0.0
 40
0.8999999999999914
100
AcDbArc
 50
270.0
 51
0.0
  0
LINE
  5
30F
330
71
100
AcDbEntity
  8
Visible (ANSI)
100
AcDbLine
 10
278.5725117001039
 20
161.3955444568726
 30
0.0
 11
278.9725117001039
 21
161.3955444568726
 31
0.0
  0
LINE
  5
310
330
71
100
AcDbEntity
  8
Visible (ANSI)
100
AcDbLine
 10
278.9725117001039
 20
162.3955444568727
 30
0.0
 11
278.5725117001039
 21
162.3955444568727
 31
0.0
  0
ARC
  5
311
330
71
100
AcDbEntity
  8
Visible (ANSI)
100
AcDbCircle
 10
278.5725117001039
 20
163.2955444568727
 30
0.0
 40
1.89999999999996
100
AcDbArc
 50
180.0
 51
269.9999999999989
  0
ARC
  5
312
330
71
100
AcDbEntity
  8
Visible (ANSI)
100
AcDbCircle
 10
278.5725117001039
 20
163.2955444568727
 30
0.0
 40
0.899999999999963
100
AcDbArc
 50
180.0
 51
270.0
  0
LINE
  5
313
330
71
100
AcDbEntity
  8
Visible (ANSI)
100
AcDbLine
 10
276.6725117001039
 20
176.6955444568726
 30
0.0
 11
276.672511700104
 21
163.2955444568727
 31
0.0
  0
LINE
  5
314
330
71
100
AcDbEntity
  8
Visible (ANSI)
100
AcDbLine
 10
277.6725117001039
 20
163.2955444568727
 30
0.0
 11
277.6725117001039
 21
176.6955444568726
 31
0.0
  0
ARC
  5
315
330
71
100
AcDbEntity
  8
Visible (ANSI)
100
AcDbCircle
 10
278.5725117001039
 20
176.6955444568727
 30
0.0
 40
1.899999999999971
100
AcDbArc
 50
89.99999999999786
 51
180.0
  0
LINE
  5
316
330
71
100
AcDbEntity
  8
Visible (ANSI)
100
AcDbLine
 10
278.972511700104
 20
178.5955444568726
 30
0.0
 11
278.5725117001039
 21
178.5955444568727
 31
0.0
  0
ARC
  5
317
330
71
100
AcDbEntity
  8
Visible (ANSI)
100
AcDbCircle
 10
278.9725117001039
 20
176.6955444568726
 30
0.0
 40
1.899999999999997
100
AcDbArc
 50
0.0
 51
89.99999999999893
  0
LINE
  5
318
330
71
100
AcDbEntity
  8
Visible (ANSI)
100
AcDbLine
 10
300.8169290120657
 20
177.3508003451984
 30
0.0
 11
289.2121886013542
 21
184.0508003451984
 31
0.0
  0
ARC
  5
319
330
71
100
AcDbEntity
  8
Visible (ANSI)
100
AcDbCircle
 10
299.8669290120657
 20
175.705352078008
 30
0.0
 40
1.899999999999978
100
AcDbArc
 50
329.9999999999999
 51
60.00000000000082
  0
LINE
  5
31A
330
71
100
AcDbEntity
  8
Visible (ANSI)
100
AcDbLine
 10
301.3123772792562
 20
174.4089419164942
 30
0.0
 11
301.5123772792561
 21
174.7553520780079
 31
0.0
  0
ARC
  5
31B
330
71
100
AcDbEntity
  8
Visible (ANSI)
100
AcDbCircle
 10
299.6669290120657
 20
175.3589419164942
 30
0.0
 40
1.899999999999961
100
AcDbArc
 50
239.9999999999995
 51
330.0000000000003
  0
LINE
  5
31C
330
71
100
AcDbEntity
  8
Visible (ANSI)
100
AcDbLine
 10
287.1121886013543
 20
180.4134936493038
 30
0.0
 11
298.7169290120657
 21
173.7134936493038
 31
0.0
  0
ARC
  5
31D
330
71
100
AcDbEntity
  8
Visible (ANSI)
100
AcDbCircle
 10
288.0621886013542
 20
182.0589419164942
 30
0.0
 40
1.899999999999971
100
AcDbArc
 50
149.9999999999975
 51
240.0000000000014
  0
LINE
  5
31E
330
71
100
AcDbEntity
  8
Visible (ANSI)
100
AcDbLine
 10
286.6167403341638
 20
183.355352078008
 30
0.0
 11
286.4167403341638
 21
183.0089419164943
 31
0.0
  0
ARC
  5
31F
330
71
100
AcDbEntity
  8
Visible (ANSI)
100
AcDbCircle
 10
288.2621886013543
 20
182.405352078008
 30
0.0
 40
1.899999999999996
100
AcDbArc
 50
60.00000000000049
 51
149.9999999999996
  0
LINE
  5
320
330
71
100
AcDbEntity
  8
Visible (ANSI)
100
AcDbLine
 10
280.672511700104
 20
198.4955444568726
 30
0.0
 11
280.672511700104
 21
211.8955444568727
 31
0.0
  0
ARC
  5
321
330
71
100
AcDbEntity
  8
Visible (ANSI)
100
AcDbCircle
 10
278.772511700104
 20
198.4955444568726
 30
0.0
 40
1.899999999999971
100
AcDbArc
 50
269.9999999999978
 51
0.0
  0
LINE
  5
322
330
71
100
AcDbEntity
  8
Visible (ANSI)
100
AcDbLine
 10
278.3725117001039
 20
196.5955444568727
 30
0.0
 11
278.7725117001039
 21
196.5955444568726
 31
0.0
  0
ARC
  5
323
330
71
100
AcDbEntity
  8
Visible (ANSI)
100
AcDbCircle
 10
278.372511700104
 20
198.4955444568726
 30
0.0
 40
1.9
100
AcDbArc
 50
180.0
 51
269.9999999999989
  0
LINE
  5
324
330
71
100
AcDbEntity
  8
Visible (ANSI)
100
AcDbLine
 10
276.4725117001039
 20
211.8955444568727
 30
0.0
 11
276.4725117001039
 21
198.4955444568726
 31
0.0
  0
ARC
  5
325
330
71
100
AcDbEntity
  8
Visible (ANSI)
100
AcDbCircle
 10
278.3725117001039
 20
211.8955444568727
 30
0.0
 40
1.899999999999986
100
AcDbArc
 50
90.0
 51
180.0
  0
LINE
  5
326
330
71
100
AcDbEntity
  8
Visible (ANSI)
100
AcDbLine
 10
278.7725117001039
 20
213.7955444568727
 30
0.0
 11
278.3725117001039
 21
213.7955444568727
 31
0.0
  0
ARC
  5
327
330
71
100
AcDbEntity
  8
Visible (ANSI)
100
AcDbCircle
 10
278.7725117001039
 20
211.8955444568727
 30
0.0
 40
1.89999999999996
100
AcDbArc
 50
0.0
 51
89.99999999999893
  0
LINE
  5
328
330
71
100
AcDbEntity
  8
Visible (ANSI)
100
AcDbLine
 10
268.2328347988536
 20
183.8775952644416
 30
0.0
 11
256.6280943881421
 21
177.1775952644416
 31
0.0
  0
ARC
  5
329
330
71
100
AcDbEntity
  8
Visible (ANSI)
100
AcDbCircle
 10
269.1828347988535
 20
182.2321469972512
 30
0.0
 40
1.89999999999997
100
AcDbArc
 50
29.99999999999765
 51
120.0000000000015
  0
LINE
  5
32A
330
71
100
AcDbEntity
  8
Visible (ANSI)
100
AcDbLine
 10
271.028283066044
 20
182.8357368357373
 30
0.0
 11
270.828283066044
 21
183.1821469972511
 31
0.0
  0
ARC
  5
32B
330
71
100
AcDbEntity
  8
Visible (ANSI)
100
AcDbCircle
 10
269.3828347988535
 20
181.8857368357374
 30
0.0
 40
1.899999999999998
100
AcDbArc
 50
300.000000000001
 51
29.9999999999995
  0
LINE
  5
32C
330
71
100
AcDbEntity
  8
Visible (ANSI)
100
AcDbLine
 10
258.728094388142
 20
173.5402885685469
 30
0.0
 11
270.3328347988536
 21
180.240288568547
 31
0.0
  0
ARC
  5
32D
330
71
100
AcDbEntity
  8
Visible (ANSI)
100
AcDbCircle
 10
257.7780943881421
 20
175.1857368357373
 30
0.0
 40
1.899999999999987
100
AcDbArc
 50
209.9999999999985
 51
300.0
  0
LINE
  5
32E
330
71
100
AcDbEntity
  8
Visible (ANSI)
100
AcDbLine
 10
255.9326461209516
 20
174.5821469972512
 30
0.0
 11
256.1326461209516
 21
174.2357368357374
 31
0.0
  0
ARC
  5
32F
330
71
100
AcDbEntity
  8
Visible (ANSI)
100
AcDbCircle
 10
257.578094388142
 20
175.5321469972511
 30
0.0
 40
1.899999999999961
100
AcDbArc
 50
120.0000000000001
 51
209.9999999999991
  0
LINE
  5
330
330
71
100
AcDbEntity
  8
Visible (ANSI)
100
AcDbLine
 10
270.2328347988536
 20
194.7775952644416
 30
0.0
 11
258.6280943881421
 21
201.4775952644416
 31
0.0
  0
ARC
  5
331
330
71
100
AcDbEntity
  8
Visible (ANSI)
100
AcDbCircle
 10
269.2828347988536
 20
193.1321469972512
 30
0.0
 40
1.899999999999971
100
AcDbArc
 50
329.9999999999962
 51
60.00000000000082
  0
LINE
  5
332
330
71
100
AcDbEntity
  8
Visible (ANSI)
100
AcDbLine
 10
270.728283066044
 20
191.8357368357374
 30
0.0
 11
270.9282830660439
 21
192.1821469972511
 31
0.0
  0
ARC
  5
333
330
71
100
AcDbEntity
  8
Visible (ANSI)
100
AcDbCircle
 10
269.0828347988536
 20
192.7857368357374
 30
0.0
 40
1.9
100
AcDbArc
 50
239.9999999999995
 51
329.9999999999996
  0
LINE
  5
334
330
71
100
AcDbEntity
  8
Visible (ANSI)
100
AcDbLine
 10
256.5280943881421
 20
197.8402885685469
 30
0.0
 11
268.1328347988535
 21
191.140288568547
 31
0.0
  0
ARC
  5
335
330
71
100
AcDbEntity
  8
Visible (ANSI)
100
AcDbCircle
 10
257.4780943881421
 20
199.4857368357374
 30
0.0
 40
1.900000000000003
100
AcDbArc
 50
149.999999999999
 51
239.999999999999
  0
LINE
  5
336
330
71
100
AcDbEntity
  8
Visible (ANSI)
100
AcDbLine
 10
256.0326461209517
 20
200.7821469972512
 30
0.0
 11
255.8326461209516
 21
200.4357368357374
 31
0.0
  0
ARC
  5
337
330
71
100
AcDbEntity
  8
Visible (ANSI)
100
AcDbCircle
 10
257.678094388142
 20
199.8321469972511
 30
0.0
 40
1.899999999999965
100
AcDbArc
 50
59.99999999999994
 51
149.9999999999975
  0
LINE
  5
338
330
71
100
AcDbEntity
  8
Visible (ANSI)
100
AcDbLine
 10
298.6169290120658
 20
201.6508003451984
 30
0.0
 11
287.0121886013544
 21
194.9508003451984
 31
0.0
  0
ARC
  5
339
330
71
100
AcDbEntity
  8
Visible (ANSI)
100
AcDbCircle
 10
299.5669290120659
 20
200.005352078008
 30
0.0
 40
1.89999999999999
100
AcDbArc
 50
29.99999999999858
 51
119.9999999999995
  0
LINE
  5
33A
330
71
100
AcDbEntity
  8
Visible (ANSI)
100
AcDbLine
 10
301.4123772792562
 20
200.6089419164942
 30
0.0
 11
301.2123772792563
 21
200.9553520780079
 31
0.0
  0
ARC
  5
33B
330
71
100
AcDbEntity
  8
Visible (ANSI)
100
AcDbCircle
 10
299.7669290120658
 20
199.6589419164942
 30
0.0
 40
1.899999999999956
100
AcDbArc
 50
299.9999999999992
 51
29.99999999999917
  0
LINE
  5
33C
330
71
100
AcDbEntity
  8
Visible (ANSI)
100
AcDbLine
 10
289.1121886013543
 20
191.3134936493037
 30
0.0
 11
300.7169290120658
 21
198.0134936493038
 31
0.0
  0
ARC
  5
33D
330
71
100
AcDbEntity
  8
Visible (ANSI)
100
AcDbCircle
 10
288.1621886013544
 20
192.9589419164941
 30
0.0
 40
1.899999999999972
100
AcDbArc
 50
209.9999999999991
 51
300.0
  0
LINE
  5
33E
330
71
100
AcDbEntity
  8
Visible (ANSI)
100
AcDbLine
 10
286.3167403341639
 20
192.355352078008
 30
0.0
 11
286.5167403341639
 21
192.0089419164942
 31
0.0
  0
ARC
  5
33F
330
71
100
AcDbEntity
  8
Visible (ANSI)
100
AcDbCircle
 10
287.9621886013543
 20
193.3053520780079
 30
0.0
 40
1.899999999999996
100
AcDbArc
 50
119.9999999999995
 51
209.999999999998
  0
LINE
  5
340
330
71
100
AcDbEntity
  8
Visible (ANSI)
100
AcDbLine
 10
299.2169290120657
 20
174.5795190530882
 30
0.0
 11
287.6121886013542
 21
181.2795190530883
 31
0.0
  0
ARC
  5
341
330
71
100
AcDbEntity
  8
Visible (ANSI)
100
AcDbCircle
 10
288.0621886013542
 20
182.0589419164942
 30
0.0
 40
0.8999999999999731
100
AcDbArc
 50
149.9999999999993
 51
240.0000000000024
  0
LINE
  5
342
330
71
100
AcDbEntity
  8
Visible (ANSI)
100
AcDbLine
 10
287.2827657379482
 20
182.5089419164942
 30
0.0
 11
287.4827657379483
 21
182.8553520780079
 31
0.0
  0
ARC
  5
343
330
71
100
AcDbEntity
  8
Visible (ANSI)
100
AcDbCircle
 10
288.2621886013543
 20
182.405352078008
 30
0.0
 40
0.8999999999999975
100
AcDbArc
 50
60.00000000000044
 51
150.0000000000004
  0
LINE
  5
344
330
71
100
AcDbEntity
  8
Visible (ANSI)
100
AcDbLine
 10
287.5121886013543
 20
194.0847749414139
 30
0.0
 11
299.1169290120658
 21
200.784774941414
 31
0.0
  0
ARC
  5
345
330
71
100
AcDbEntity
  8
Visible (ANSI)
100
AcDbCircle
 10
288.1621886013544
 20
192.9589419164941
 30
0.0
 40
0.899999999999974
100
AcDbArc
 50
210.0000000000015
 51
300.0000000000015
  0
LINE
  5
346
330
71
100
AcDbEntity
  8
Visible (ANSI)
100
AcDbLine
 10
287.3827657379484
 20
192.5089419164942
 30
0.0
 11
287.1827657379484
 21
192.8553520780079
 31
0.0
  0
ARC
  5
347
330
71
100
AcDbEntity
  8
Visible (ANSI)
100
AcDbCircle
 10
287.9621886013543
 20
193.3053520780079
 30
0.0
 40
0.9000000000000005
100
AcDbArc
 50
119.9999999999984
 51
209.9999999999984
  0
ARC
  5
348
330
71
100
AcDbEntity
  8
Visible (ANSI)
100
AcDbCircle
 10
278.772511700104
 20
198.4955444568726
 30
0.0
 40
0.8999999999999722
100
AcDbArc
 50
270.0
 51
0.0
  0
LINE
  5
349
330
71
100
AcDbEntity
  8
Visible (ANSI)
100
AcDbLine
 10
278.7725117001039
 20
197.5955444568727
 30
0.0
 11
278.372511700104
 21
197.5955444568727
 31
0.0
  0
ARC
  5
34A
330
71
100
AcDbEntity
  8
Visible (ANSI)
100
AcDbCircle
 10
278.372511700104
 20
198.4955444568726
 30
0.0
 40
0.8999999999999985
100
AcDbArc
 50
180.0
 51
270.0
  0
LINE
  5
34B
330
71
100
AcDbEntity
  8
Visible (ANSI)
100
AcDbLine
 10
277.472511700104
 20
198.4955444568726
 30
0.0
 11
277.472511700104
 21
211.8955444568727
 31
0.0
  0
LINE
  5
34C
330
71
100
AcDbEntity
  8
Visible (ANSI)
100
AcDbLine
 10
268.6328347988535
 20
192.0063139723314
 30
0.0
 11
257.028094388142
 21
198.7063139723314
 31
0.0
  0
ARC
  5
34D
330
71
100
AcDbEntity
  8
Visible (ANSI)
100
AcDbCircle
 10
257.4780943881421
 20
199.4857368357374
 30
0.0
 40
0.8999999999999907
100
AcDbArc
 50
150.0000000000004
 51
240.0000000000004
  0
LINE
  5
34E
330
71
100
AcDbEntity
  8
Visible (ANSI)
100
AcDbLine
 10
256.6986715247361
 20
199.9357368357374
 30
0.0
 11
256.8986715247361
 21
200.2821469972511
 31
0.0
  0
ARC
  5
34F
330
71
100
AcDbEntity
  8
Visible (ANSI)
100
AcDbCircle
 10
257.678094388142
 20
199.8321469972511
 30
0.0
 40
0.8999999999999587
100
AcDbArc
 50
59.99999999999929
 51
149.9999999999993
  0
LINE
  5
350
330
71
100
AcDbEntity
  8
Visible (ANSI)
100
AcDbLine
 10
257.128094388142
 20
176.3115698606571
 30
0.0
 11
268.7328347988536
 21
183.0115698606572
 31
0.0
  0
ARC
  5
351
330
71
100
AcDbEntity
  8
Visible (ANSI)
100
AcDbCircle
 10
257.7780943881421
 20
175.1857368357373
 30
0.0
 40
0.8999999999999896
100
AcDbArc
 50
210.0000000000015
 51
300.0000000000015
  0
LINE
  5
352
330
71
100
AcDbEntity
  8
Visible (ANSI)
100
AcDbLine
 10
256.998671524736
 20
174.7357368357374
 30
0.0
 11
256.7986715247361
 21
175.0821469972511
 31
0.0
  0
ARC
  5
353
330
71
100
AcDbEntity
  8
Visible (ANSI)
100
AcDbCircle
 10
257.578094388142
 20
175.5321469972511
 30
0.0
 40
0.8999999999999603
100
AcDbArc
 50
119.9999999999995
 51
209.9999999999996
  0
LINE
  5
354
330
71
100
AcDbEntity
  8
Visible (ANSI)
100
AcDbLine
 10
230.672511700104
 20
151.6205444568727
 30
0.0
 11
240.7725117001039
 21
151.6205444568726
 31
0.0
  0
LINE
  5
355
330
71
100
AcDbEntity
  8
Visible (ANSI)
100
AcDbLine
 10
240.7725117001039
 20
151.6205444568726
 30
0.0
 11
240.7725117001039
 21
148.2705444568727
 31
0.0
  0
LINE
  5
356
330
71
100
AcDbEntity
  8
Visible (ANSI)
100
AcDbLine
 10
240.7725117001039
 20
148.2705444568727
 30
0.0
 11
230.672511700104
 21
148.2705444568727
 31
0.0
  0
LINE
  5
357
330
71
100
AcDbEntity
  8
Visible (ANSI)
100
AcDbLine
 10
242.5725117001039
 20
129.0205444568726
 30
0.0
 11
242.5725117001039
 21
130.2705444568726
 31
0.0
  0
LINE
  5
358
330
71
100
AcDbEntity
  8
Visible (ANSI)
100
AcDbLine
 10
242.5725117001039
 20
130.2705444568726
 30
0.0
 11
314.7725117001039
 21
130.2705444568727
 31
0.0
  0
LINE
  5
359
330
71
100
AcDbEntity
  8
Visible (ANSI)
100
AcDbLine
 10
314.7725117001039
 20
130.2705444568727
 30
0.0
 11
314.7725117001039
 21
129.0205444568727
 31
0.0
  0
LINE
  5
35A
330
71
100
AcDbEntity
  8
Visible (ANSI)
100
AcDbLine
 10
326.6725117001039
 20
148.2705444568727
 30
0.0
 11
316.5725117001039
 21
148.2705444568727
 31
0.0
  0
LINE
  5
35B
330
71
100
AcDbEntity
  8
Visible (ANSI)
100
AcDbLine
 10
316.5725117001039
 20
148.2705444568727
 30
0.0
 11
316.5725117001039
 21
151.6205444568726
 31
0.0
  0
LINE
  5
35C
330
71
100
AcDbEntity
  8
Visible (ANSI)
100
AcDbLine
 10
316.5725117001039
 20
151.6205444568726
 30
0.0
 11
326.6725117001039
 21
151.6205444568727
 31
0.0
  0
LINE
  5
35D
330
71
100
AcDbEntity
  8
Visible (ANSI)
100
AcDbLine
 10
314.7725117001039
 20
225.0205444568727
 30
0.0
 11
314.7725117001039
 21
223.7705444568727
 31
0.0
  0
LINE
  5
35E
330
71
100
AcDbEntity
  8
Visible (ANSI)
100
AcDbLine
 10
314.7725117001039
 20
223.7705444568727
 30
0.0
 11
242.5725117001039
 21
223.7705444568727
 31
0.0
  0
LINE
  5
35F
330
71
100
AcDbEntity
  8
Visible (ANSI)
100
AcDbLine
 10
242.5725117001039
 20
223.7705444568727
 30
0.0
 11
242.5725117001039
 21
225.0205444568727
 31
0.0
  0
LINE
  5
360
330
71
100
AcDbEntity
  8
Visible (ANSI)
100
AcDbLine
 10
287.0275117001039
 20
148.2705444568726
 30
0.0
 11
287.0275117001039
 21
135.7305444568726
 31
0.0
  0
LINE
  5
361
330
71
100
AcDbEntity
  8
Visible (ANSI)
100
AcDbLine
 10
287.0275117001039
 20
135.7305444568726
 30
0.0
 11
283.6775117001039
 21
135.7305444568726
 31
0.0
  0
LINE
  5
362
330
71
100
AcDbEntity
  8
Visible (ANSI)
100
AcDbLine
 10
283.6775117001039
 20
135.7305444568726
 30
0.0
 11
283.6775117001039
 21
148.2705444568727
 31
0.0
  0
LINE
  5
363
330
71
100
AcDbEntity
  8
Visible (ANSI)
100
AcDbLine
 10
283.6775117001039
 20
148.2705444568727
 30
0.0
 11
287.0275117001039
 21
148.2705444568726
 31
0.0
  0
LINE
  5
364
330
71
100
AcDbEntity
  8
Visible (ANSI)
100
AcDbLine
 10
273.6675117001039
 20
148.2705444568727
 30
0.0
 11
273.6675117001039
 21
135.7305444568726
 31
0.0
  0
LINE
  5
365
330
71
100
AcDbEntity
  8
Visible (ANSI)
100
AcDbLine
 10
273.6675117001039
 20
135.7305444568726
 30
0.0
 11
270.3175117001039
 21
135.7305444568726
 31
0.0
  0
LINE
  5
366
330
71
100
AcDbEntity
  8
Visible (ANSI)
100
AcDbLine
 10
270.3175117001039
 20
135.7305444568726
 30
0.0
 11
270.3175117001039
 21
148.2705444568726
 31
0.0
  0
LINE
  5
367
330
71
100
AcDbEntity
  8
Visible (ANSI)
100
AcDbLine
 10
270.3175117001039
 20
148.2705444568726
 30
0.0
 11
273.6675117001039
 21
148.2705444568727
 31
0.0
  0
LINE
  5
368
330
71
100
AcDbEntity
  8
Visible (ANSI)
100
AcDbLine
 10
258.1225117001039
 20
148.2705444568726
 30
0.0
 11
258.1225117001039
 21
151.6205444568726
 31
0.0
  0
LINE
  5
369
330
71
100
AcDbEntity
  8
Visible (ANSI)
100
AcDbLine
 10
258.1225117001039
 20
151.6205444568726
 30
0.0
 11
265.222511700104
 21
151.6205444568726
 31
0.0
  0
LINE
  5
36A
330
71
100
AcDbEntity
  8
Visible (ANSI)
100
AcDbLine
 10
265.222511700104
 20
151.6205444568726
 30
0.0
 11
265.222511700104
 21
148.2705444568726
 31
0.0
  0
LINE
  5
36B
330
71
100
AcDbEntity
  8
Visible (ANSI)
100
AcDbLine
 10
265.222511700104
 20
148.2705444568726
 30
0.0
 11
258.1225117001039
 21
148.2705444568726
 31
0.0
  0
LINE
  5
36C
330
71
100
AcDbEntity
  8
Visible (ANSI)
100
AcDbLine
 10
299.2225117001039
 20
151.6205444568726
 30
0.0
 11
299.2225117001039
 21
148.2705444568726
 31
0.0
  0
LINE
  5
36D
330
71
100
AcDbEntity
  8
Visible (ANSI)
100
AcDbLine
 10
299.2225117001039
 20
148.2705444568726
 30
0.0
 11
292.1225117001039
 21
148.2705444568726
 31
0.0
  0
LINE
  5
36E
330
71
100
AcDbEntity
  8
Visible (ANSI)
100
AcDbLine
 10
292.1225117001039
 20
148.2705444568726
 30
0.0
 11
292.1225117001039
 21
151.6205444568726
 31
0.0
  0
LINE
  5
36F
330
71
100
AcDbEntity
  8
Visible (ANSI)
100
AcDbLine
 10
292.1225117001039
 20
151.6205444568726
 30
0.0
 11
299.2225117001039
 21
151.6205444568726
 31
0.0
  0
CIRCLE
  5
370
330
71
100
AcDbEntity
  8
Visible (ANSI)
100
AcDbCircle
 10
278.5617974143431
 20
187.5955444568727
 30
0.0
 40
3.599999999999999
  0
CIRCLE
  5
371
330
71
100
AcDbEntity
  8
Visible (ANSI)
100
AcDbCircle
 10
278.5617974143431
 20
187.5955444568727
 30
0.0
 40
2.6
  0
LINE
  5
372
330
71
100
AcDbEntity
  8
Visible (ANSI)
100
AcDbLine
 10
228.672511700104
 20
225.0205444568727
 30
0.0
 11
228.672511700104
 21
151.6205444568727
 31
0.0
  0
ARC
  5
373
330
71
100
AcDbEntity
  8
Visible (ANSI)
100
AcDbCircle
 10
230.672511700104
 20
225.0205444568727
 30
0.0
 40
1.999999999999984
100
AcDbArc
 50
89.99999999999898
 51
180.0
  0
LINE
  5
374
330
71
100
AcDbEntity
  8
Visible (ANSI)
100
AcDbLine
 10
230.672511700104
 20
151.6205444568727
 30
0.0
 11
228.6725117001039
 21
151.6205444568727
 31
0.0
  0
LINE
  5
375
330
71
100
AcDbEntity
  8
Visible (ANSI)
100
AcDbLine
 10
228.672511700104
 20
148.2705444568727
 30
0.0
 11
228.6725117001039
 21
129.0205444568726
 31
0.0
  0
ARC
  5
376
330
71
100
AcDbEntity
  8
Visible (ANSI)
100
AcDbCircle
 10
230.672511700104
 20
129.0205444568727
 30
0.0
 40
2.000000000000028
100
AcDbArc
 50
180.0
 51
270.0
  0
LINE
  5
377
330
71
100
AcDbEntity
  8
Visible (ANSI)
100
AcDbLine
 10
228.672511700104
 20
148.2705444568727
 30
0.0
 11
230.672511700104
 21
148.2705444568727
 31
0.0
  0
LINE
  5
378
330
71
100
AcDbEntity
  8
Visible (ANSI)
100
AcDbLine
 10
328.6725117001039
 20
151.6205444568726
 30
0.0
 11
328.6725117001039
 21
225.0205444568727
 31
0.0
  0
ARC
  5
379
330
71
100
AcDbEntity
  8
Visible (ANSI)
100
AcDbCircle
 10
326.6725117001039
 20
225.0205444568727
 30
0.0
 40
2.000000000000001
100
AcDbArc
 50
0.0
 51
90.0
  0
LINE
  5
37A
330
71
100
AcDbEntity
  8
Visible (ANSI)
100
AcDbLine
 10
328.6725117001039
 20
151.6205444568726
 30
0.0
 11
326.6725117001039
 21
151.6205444568726
 31
0.0
  0
LINE
  5
37B
330
71
100
AcDbEntity
  8
Visible (ANSI)
100
AcDbLine
 10
328.6725117001039
 20
129.0205444568726
 30
0.0
 11
328.6725117001039
 21
148.2705444568727
 31
0.0
  0
ARC
  5
37C
330
71
100
AcDbEntity
  8
Visible (ANSI)
100
AcDbCircle
 10
326.6725117001039
 20
129.0205444568727
 30
0.0
 40
2.000000000000019
100
AcDbArc
 50
270.0000000000021
 51
0.0
  0
LINE
  5
37D
330
71
100
AcDbEntity
  8
Visible (ANSI)
100
AcDbLine
 10
326.6725117001039
 20
148.2705444568726
 30
0.0
 11
328.6725117001039
 21
148.2705444568726
 31
0.0
  0
LINE
  5
37E
330
71
100
AcDbEntity
  8
Visible (ANSI)
100
AcDbLine
 10
242.5725117001039
 20
227.0205444568727
 30
0.0
 11
230.6725117001041
 21
227.0205444568727
 31
0.0
  0
LINE
  5
37F
330
71
100
AcDbEntity
  8
Visible (ANSI)
100
AcDbLine
 10
242.5725117001039
 20
227.0205444568727
 30
0.0
 11
242.5725117001039
 21
225.0205444568727
 31
0.0
  0
LINE
  5
380
330
71
100
AcDbEntity
  8
Visible (ANSI)
100
AcDbLine
 10
230.6725117001039
 20
127.0205444568726
 30
0.0
 11
242.5725117001039
 21
127.0205444568726
 31
0.0
  0
LINE
  5
381
330
71
100
AcDbEntity
  8
Visible (ANSI)
100
AcDbLine
 10
242.5725117001039
 20
129.0205444568726
 30
0.0
 11
242.5725117001039
 21
127.0205444568726
 31
0.0
  0
LINE
  5
382
330
71
100
AcDbEntity
  8
Visible (ANSI)
100
AcDbLine
 10
326.6725117001039
 20
227.0205444568727
 30
0.0
 11
314.7725117001039
 21
227.0205444568727
 31
0.0
  0
LINE
  5
383
330
71
100
AcDbEntity
  8
Visible (ANSI)
100
AcDbLine
 10
314.7725117001039
 20
225.0205444568727
 30
0.0
 11
314.7725117001039
 21
227.0205444568727
 31
0.0
  0
LINE
  5
384
330
71
100
AcDbEntity
  8
Visible (ANSI)
100
AcDbLine
 10
314.7725117001039
 20
127.0205444568727
 30
0.0
 11
326.6725117001039
 21
127.0205444568726
 31
0.0
  0
LINE
  5
385
330
71
100
AcDbEntity
  8
Visible (ANSI)
100
AcDbLine
 10
314.7725117001039
 20
127.0205444568726
 30
0.0
 11
314.7725117001039
 21
129.0205444568726
 31
0.0
  0
SPLINE
  5
386
330
71
100
AcDbEntity
  8
Visible (ANSI)
100
AcDbSpline
210
0.0
220
0.0
230
1.0
 70
     8
 71
     2
 72
     7
 73
     4
 74
     0
 42
0.000000001
 43
0.0000000001
 40
0.0
 40
0.0
 40
0.0
 40
1.0
 40
2.0
 40
2.0
 40
2.0
 10
398.5677801396794
 20
133.0977402510007
 30
0.0
 10
398.6420658527001
 20
133.1777402496383
 30
0.0
 10
398.7277801369547
 20
133.3977402458917
 30
0.0
 10
398.7277801369547
 20
133.5863116712518
 30
0.0
  0
SPLINE
  5
387
330
71
100
AcDbEntity
  8
Visible (ANSI)
100
AcDbSpline
210
0.0
220
0.0
230
1.0
 70
     8
 71
     2
 72
     7
 73
     4
 74
     0
 42
0.000000001
 43
0.0000000001
 40
0.0
 40
0.0
 40
0.0
 40
1.0
 40
2.0
 40
2.0
 40
2.0
 10
398.7277801369547
 20
133.5863116712518
 30
0.0
 10
398.7277801369547
 20
133.7577402397609
 30
0.0
 10
398.6277801386576
 20
133.9777402360144
 30
0.0
 10
398.542065854403
 20
134.0434545206095
 30
0.0
  0
SPLINE
  5
388
330
71
100
AcDbEntity
  8
Visible (ANSI)
100
AcDbSpline
210
0.0
220
0.0
230
1.0
 70
     8
 71
     2
 72
     7
 73
     4
 74
     0
 42
0.000000001
 43
0.0000000001
 40
0.0
 40
0.0
 40
0.0
 40
1.0
 40
2.0
 40
2.0
 40
2.0
 10
398.542065854403
 20
134.0434545206095
 30
0.0
 10
398.4563515701485
 20
134.1091688052047
 30
0.0
 10
398.2277801454697
 20
134.157740232949
 30
0.0
 10
398.1049230047047
 20
134.157740232949
 30
0.0
  0
SPLINE
  5
389
330
71
100
AcDbEntity
  8
Visible (ANSI)
100
AcDbSpline
210
0.0
220
0.0
230
1.0
 70
     8
 71
     2
 72
     7
 73
     4
 74
     0
 42
0.000000001
 43
0.0000000001
 40
0.0
 40
0.0
 40
0.0
 40
1.0
 40
2.0
 40
2.0
 40
2.0
 10
398.1049230047047
 20
134.157740232949
 30
0.0
 10
398.0020658635993
 20
134.157740232949
 30
0.0
 10
397.7763515817287
 20
134.1120259480132
 30
0.0
 10
397.6820658690487
 20
134.0748830915029
 30
0.0
  0
SPLINE
  5
38A
330
71
100
AcDbEntity
  8
Visible (ANSI)
100
AcDbSpline
210
0.0
220
0.0
230
1.0
 70
     8
 71
     2
 72
     7
 73
     4
 74
     0
 42
0.000000001
 43
0.0000000001
 40
0.0
 40
0.0
 40
0.0
 40
1.0
 40
2.0
 40
2.0
 40
2.0
 10
397.6820658690487
 20
134.0748830915029
 30
0.0
 10
397.6820658690487
 20
134.052025949035
 30
0.0
 10
397.6763515834318
 20
133.9434545223125
 30
0.0
 10
397.6763515834318
 20
133.8605973808664
 30
0.0
  0
SPLINE
  5
38B
330
71
100
AcDbEntity
  8
Visible (ANSI)
100
AcDbSpline
210
0.0
220
0.0
230
1.0
 70
     8
 71
     2
 72
     7
 73
     4
 74
     0
 42
0.000000001
 43
0.0000000001
 40
0.0
 40
0.0
 40
0.0
 40
1.0
 40
2.0
 40
2.0
 40
2.0
 10
397.6763515834318
 20
133.8605973808664
 30
0.0
 10
397.6763515834318
 20
133.5720259572094
 30
0.0
 10
397.7906372957713
 20
133.1977402492977
 30
0.0
 10
397.8877801512598
 20
133.0977402510007
 30
0.0
  0
SPLINE
  5
38C
330
71
100
AcDbEntity
  8
Visible (ANSI)
100
AcDbSpline
210
0.0
220
0.0
230
1.0
 70
     8
 71
     2
 72
     7
 73
     4
 74
     0
 42
0.000000001
 43
0.0000000001
 40
0.0
 40
0.0
 40
0.0
 40
1.0
 40
2.0
 40
2.0
 40
2.0
 10
397.8877801512598
 20
133.0977402510007
 30
0.0
 10
397.953494435855
 20
133.0263116807885
 30
0.0
 10
398.1334944327895
 20
132.9577402533849
 30
0.0
 10
398.2363515738951
 20
132.9577402533849
 30
0.0
  0
SPLINE
  5
38D
330
71
100
AcDbEntity
  8
Visible (ANSI)
100
AcDbSpline
210
0.0
220
0.0
230
1.0
 70
     8
 71
     2
 72
     7
 73
     4
 74
     0
 42
0.000000001
 43
0.0000000001
 40
0.0
 40
0.0
 40
0.0
 40
1.0
 40
2.0
 40
2.0
 40
2.0
 10
398.2363515738951
 20
132.9577402533849
 30
0.0
 10
398.3134944297242
 20
132.9577402533849
 30
0.0
 10
398.5020658550843
 20
133.029168823597
 30
0.0
 10
398.5677801396794
 20
133.0977402510007
 30
0.0
  0
SPLINE
  5
38E
330
71
100
AcDbEntity
  8
Visible (ANSI)
100
AcDbSpline
210
0.0
220
0.0
230
1.0
 70
     8
 71
     2
 72
     7
 73
     4
 74
     0
 42
0.000000001
 43
0.0000000001
 40
0.0
 40
0.0
 40
0.0
 40
1.0
 40
2.0
 40
2.0
 40
2.0
 10
399.6363515500532
 20
133.6291688133791
 30
0.0
 10
399.6363515500532
 20
133.3577402465729
 30
0.0
 10
399.4392086962676
 20
132.8834545403642
 30
0.0
 10
399.259208699333
 20
132.7205974002805
 30
0.0
  0
SPLINE
  5
38F
330
71
100
AcDbEntity
  8
Visible (ANSI)
100
AcDbSpline
210
0.0
220
0.0
230
1.0
 70
     8
 71
     2
 72
     7
 73
     4
 74
     0
 42
0.000000001
 43
0.0000000001
 40
0.0
 40
0.0
 40
0.0
 40
1.0
 40
2.0
 40
2.0
 40
2.0
 10
399.2049229859718
 20
134.5720259401794
 30
0.0
 10
399.4020658397574
 20
134.4348830853721
 30
0.0
 10
399.6363515500532
 20
133.9748830932059
 30
0.0
 10
399.6363515500532
 20
133.6291688133791
 30
0.0
  0
SPLINE
  5
390
330
71
100
AcDbEntity
  8
Visible (ANSI)
100
AcDbSpline
210
0.0
220
0.0
230
1.0
 70
     8
 71
     2
 72
     7
 73
     4
 74
     0
 42
0.000000001
 43
0.0000000001
 40
0.0
 40
0.0
 40
0.0
 40
1.0
 40
2.0
 40
2.0
 40
2.0
 10
398.5020658550843
 20
134.769168793965
 30
0.0
 10
398.7049229944868
 20
134.769168793965
 30
0.0
 10
399.0563515599305
 20
134.6748830812849
 30
0.0
 10
399.2049229859718
 20
134.5720259401794
 30
0.0
  0
SPLINE
  5
391
330
71
100
AcDbEntity
  8
Visible (ANSI)
100
AcDbSpline
210
0.0
220
0.0
230
1.0
 70
     8
 71
     2
 72
     7
 73
     4
 74
     0
 42
0.000000001
 43
0.0000000001
 40
0.0
 40
0.0
 40
0.0
 40
1.0
 40
2.0
 40
2.0
 40
2.0
 10
397.6849230118572
 20
134.5263116552437
 30
0.0
 10
397.8677801516004
 20
134.6348830819661
 30
0.0
 10
398.2677801447884
 20
134.769168793965
 30
0.0
 10
398.5020658550843
 20
134.769168793965
 30
0.0
  0
SPLINE
  5
392
330
71
100
AcDbEntity
  8
Visible (ANSI)
100
AcDbSpline
210
0.0
220
0.0
230
1.0
 70
     8
 71
     2
 72
     7
 73
     4
 74
     0
 42
0.000000001
 43
0.0000000001
 40
0.0
 40
0.0
 40
0.0
 40
1.0
 40
2.0
 40
2.0
 40
2.0
 10
398.6906372804443
 20
135.3634544981301
 30
0.0
 10
398.2392087167035
 20
135.3634544981301
 30
0.0
 10
397.73635158241
 20
134.9205973628147
 30
0.0
 10
397.6849230118572
 20
134.5263116552437
 30
0.0
  0
SPLINE
  5
393
330
71
100
AcDbEntity
  8
Visible (ANSI)
100
AcDbSpline
210
0.0
220
0.0
230
1.0
 70
     8
 71
     2
 72
     7
 73
     4
 74
     0
 42
0.000000001
 43
0.0000000001
 40
0.0
 40
0.0
 40
0.0
 40
1.0
 40
2.0
 40
2.0
 40
2.0
 10
399.2506372709076
 20
135.2548830714076
 30
0.0
 10
399.1877801291209
 20
135.286311642301
 30
0.0
 10
398.8849229914214
 20
135.3634544981301
 30
0.0
 10
398.6906372804443
 20
135.3634544981301
 30
0.0
  0
LINE
  5
394
330
71
100
AcDbEntity
  8
Visible (ANSI)
100
AcDbLine
 10
399.3392086979707
 20
135.2548830714076
 30
0.0
 11
399.2506372709076
 21
135.2548830714076
 31
0.0
  0
LINE
  5
395
330
71
100
AcDbEntity
  8
Visible (ANSI)
100
AcDbLine
 10
399.3392086979707
 20
135.9434544882528
 30
0.0
 11
399.3392086979707
 21
135.2548830714076
 31
0.0
  0
SPLINE
  5
396
330
71
100
AcDbEntity
  8
Visible (ANSI)
100
AcDbSpline
210
0.0
220
0.0
230
1.0
 70
     8
 71
     2
 72
     7
 73
     4
 74
     0
 42
0.000000001
 43
0.0000000001
 40
0.0
 40
0.0
 40
0.0
 40
1.0
 40
2.0
 40
2.0
 40
2.0
 10
398.6992087088698
 20
136.0034544872309
 30
0.0
 10
398.8706372773789
 20
136.0034544872309
 30
0.0
 10
399.2792086989925
 20
135.9577402022952
 30
0.0
 10
399.3392086979707
 20
135.9434544882528
 30
0.0
  0
SPLINE
  5
397
330
71
100
AcDbEntity
  8
Visible (ANSI)
100
AcDbSpline
210
0.0
220
0.0
230
1.0
 70
     8
 71
     2
 72
     7
 73
     4
 74
     0
 42
0.000000001
 43
0.0000000001
 40
0.0
 40
0.0
 40
0.0
 40
1.0
 40
2.0
 40
2.0
 40
2.0
 10
397.224923019691
 20
135.4491687823847
 30
0.0
 10
397.4534944443699
 20
135.7120259207653
 30
0.0
 10
398.1906372889593
 20
136.0034544872309
 30
0.0
 10
398.6992087088698
 20
136.0034544872309
 30
0.0
  0
SPLINE
  5
398
330
71
100
AcDbEntity
  8
Visible (ANSI)
100
AcDbSpline
210
0.0
220
0.0
230
1.0
 70
     8
 71
     2
 72
     7
 73
     4
 74
     0
 42
0.000000001
 43
0.0000000001
 40
0.0
 40
0.0
 40
0.0
 40
1.0
 40
2.0
 40
2.0
 40
2.0
 10
396.7734944559502
 20
133.9977402356737
 30
0.0
 10
396.7734944559502
 20
134.45774022784
 30
0.0
 10
396.9849230237782
 20
135.1720259299615
 30
0.0
 10
397.224923019691
 20
135.4491687823847
 30
0.0
  0
SPLINE
  5
399
330
71
100
AcDbEntity
  8
Visible (ANSI)
100
AcDbSpline
210
0.0
220
0.0
230
1.0
 70
     8
 71
     2
 72
     7
 73
     4
 74
     0
 42
0.000000001
 43
0.0000000001
 40
0.0
 40
0.0
 40
0.0
 40
1.0
 40
2.0
 40
2.0
 40
2.0
 10
397.2134944484571
 20
132.712025971855
 30
0.0
 10
396.9992087378206
 20
132.9148831112576
 30
0.0
 10
396.7734944559502
 20
133.55202595755
 30
0.0
 10
396.7734944559502
 20
133.9977402356737
 30
0.0
  0
SPLINE
  5
39A
330
71
100
AcDbEntity
  8
Visible (ANSI)
100
AcDbSpline
210
0.0
220
0.0
230
1.0
 70
     8
 71
     2
 72
     7
 73
     4
 74
     0
 42
0.000000001
 43
0.0000000001
 40
0.0
 40
0.0
 40
0.0
 40
1.0
 40
2.0
 40
2.0
 40
2.0
 10
398.2334944310866
 20
132.3634545492198
 30
0.0
 10
397.9192087221531
 20
132.3634545492198
 30
0.0
 10
397.3992087310086
 20
132.5348831177289
 30
0.0
 10
397.2134944484571
 20
132.712025971855
 30
0.0
  0
SPLINE
  5
39B
330
71
100
AcDbEntity
  8
Visible (ANSI)
100
AcDbSpline
210
0.0
220
0.0
230
1.0
 70
     8
 71
     2
 72
     7
 73
     4
 74
     0
 42
0.000000001
 43
0.0000000001
 40
0.0
 40
0.0
 40
0.0
 40
1.0
 40
2.0
 40
2.0
 40
2.0
 10
399.259208699333
 20
132.7205974002805
 30
0.0
 10
399.0706372739729
 20
132.5463116889628
 30
0.0
 10
398.5706372824879
 20
132.3634545492198
 30
0.0
 10
398.2334944310866
 20
132.3634545492198
 30
0.0
  0
CIRCLE
  5
39C
330
71
100
AcDbEntity
  8
Visible (ANSI)
100
AcDbCircle
 10
403.6913597546299
 20
209.2015475227383
 30
0.0
 40
2.69
  0
CIRCLE
  5
39D
330
71
100
AcDbEntity
  8
Visible (ANSI)
100
AcDbCircle
 10
403.6913559855221
 20
151.7015487026331
 30
0.0
 40
2.69
  0
CIRCLE
  5
39E
330
71
100
AcDbEntity
  8
Visible (ANSI)
100
AcDbCircle
 10
403.6913559855221
 20
151.7015487026331
 30
0.0
 40
1.69
  0
CIRCLE
  5
39F
330
71
100
AcDbEntity
  8
Visible (ANSI)
100
AcDbCircle
 10
403.6913597546299
 20
209.2015475227383
 30
0.0
 40
1.69
  0
LINE
  5
3A0
330
71
100
AcDbEntity
  8
Visible (ANSI)
100
AcDbLine
 10
412.6913597546299
 20
167.1462881128067
 30
0.0
 11
412.6913568638881
 21
158.4015475227385
 31
0.0
  0
LINE
  5
3A1
330
71
100
AcDbEntity
  8
Visible (ANSI)
100
AcDbLine
 10
488.1913597546299
 20
167.146288112807
 30
0.0
 11
488.1913597546299
 21
175.4962805435265
 31
0.0
  0
LINE
  5
3A2
330
71
100
AcDbEntity
  8
Visible (ANSI)
100
AcDbLine
 10
488.1913597546299
 20
175.4962805435265
 30
0.0
 11
491.4413597546299
 21
175.4962805435265
 31
0.0
  0
LINE
  5
3A3
330
71
100
AcDbEntity
  8
Visible (ANSI)
100
AcDbLine
 10
491.4413597546299
 20
175.4962805435265
 30
0.0
 11
491.4413597546299
 21
185.3962805435266
 31
0.0
  0
LINE
  5
3A4
330
71
100
AcDbEntity
  8
Visible (ANSI)
100
AcDbLine
 10
491.4413597546299
 20
185.3962805435266
 30
0.0
 11
488.1913597546299
 21
185.3962805435266
 31
0.0
  0
LINE
  5
3A5
330
71
100
AcDbEntity
  8
Visible (ANSI)
100
AcDbLine
 10
488.1913597546299
 20
185.3962805435266
 30
0.0
 11
488.1913597546299
 21
193.7462881128068
 31
0.0
  0
LINE
  5
3A6
330
71
100
AcDbEntity
  8
Visible (ANSI)
100
AcDbLine
 10
412.6913597546299
 20
193.7462881128068
 30
0.0
 11
412.6913597546299
 21
202.5015475227383
 31
0.0
  0
LINE
  5
3A7
330
71
100
AcDbEntity
  8
Visible (ANSI)
100
AcDbLine
 10
412.6913597546299
 20
202.5015475227383
 30
0.0
 11
415.9413597546299
 21
202.5015475227383
 31
0.0
  0
LINE
  5
3A8
330
71
100
AcDbEntity
  8
Visible (ANSI)
100
AcDbLine
 10
415.9413597546299
 20
202.5015475227383
 30
0.0
 11
415.9413597546299
 21
222.4015475227383
 31
0.0
  0
LINE
  5
3A9
330
71
100
AcDbEntity
  8
Visible (ANSI)
100
AcDbLine
 10
415.9413597546299
 20
222.4015475227383
 30
0.0
 11
412.6913597546299
 21
222.4015475227384
 31
0.0
  0
LINE
  5
3AA
330
71
100
AcDbEntity
  8
Visible (ANSI)
100
AcDbLine
 10
412.6913597546299
 20
222.4015475227384
 30
0.0
 11
412.6913597546299
 21
233.7015475227383
 31
0.0
  0
LINE
  5
3AB
330
71
100
AcDbEntity
  8
Visible (ANSI)
100
AcDbLine
 10
412.6913597546299
 20
233.7015475227383
 30
0.0
 11
400.2913597546299
 21
233.7015475227383
 31
0.0
  0
LINE
  5
3AC
330
71
100
AcDbEntity
  8
Visible (ANSI)
100
AcDbLine
 10
400.2913597546299
 20
233.7015475227383
 30
0.0
 11
400.2913597546299
 21
230.4515475227383
 31
0.0
  0
LINE
  5
3AD
330
71
100
AcDbEntity
  8
Visible (ANSI)
100
AcDbLine
 10
400.2913597546299
 20
230.4515475227383
 30
0.0
 11
394.6913597546299
 21
230.4515475227383
 31
0.0
  0
LINE
  5
3AE
330
71
100
AcDbEntity
  8
Visible (ANSI)
100
AcDbLine
 10
394.6913597546299
 20
230.4515475227383
 30
0.0
 11
394.6913597546299
 21
212.1230874958063
 31
0.0
  0
ARC
  5
3AF
330
71
100
AcDbEntity
  8
Visible (ANSI)
100
AcDbCircle
 10
402.0693907471446
 20
213.0466557553275
 30
0.0
 40
7.435611585909
100
AcDbArc
 50
187.1350662547475
 51
273.7122491557864
  0
ARC
  5
3B0
330
71
100
AcDbEntity
  8
Visible (ANSI)
100
AcDbCircle
 10
402.081736544425
 20
147.9610749517617
 30
0.0
 40
7.435611571445463
100
AcDbArc
 50
86.34972390105486
 51
173.6768141249261
  0
LINE
  5
3B1
330
71
100
AcDbEntity
  8
Visible (ANSI)
100
AcDbLine
 10
394.6913597546299
 20
148.7800073948073
 30
0.0
 11
394.6913597546299
 21
130.4515475227383
 31
0.0
  0
LINE
  5
3B2
330
71
100
AcDbEntity
  8
Visible (ANSI)
100
AcDbLine
 10
394.6913597546299
 20
130.4515475227383
 30
0.0
 11
400.29135319966
 21
130.4515491483713
 31
0.0
  0
LINE
  5
3B3
330
71
100
AcDbEntity
  8
Visible (ANSI)
100
AcDbLine
 10
400.29135319966
 20
130.4515491483713
 30
0.0
 11
400.29135319966
 21
127.2015491483713
 31
0.0
  0
LINE
  5
3B4
330
71
100
AcDbEntity
  8
Visible (ANSI)
100
AcDbLine
 10
400.29135319966
 20
127.2015491483713
 30
0.0
 11
412.6913531996597
 21
127.2015491483713
 31
0.0
  0
LINE
  5
3B5
330
71
100
AcDbEntity
  8
Visible (ANSI)
100
AcDbLine
 10
412.6913531996597
 20
127.2015491483713
 30
0.0
 11
412.69135425501
 21
138.5015475227386
 31
0.0
  0
LINE
  5
3B6
330
71
100
AcDbEntity
  8
Visible (ANSI)
100
AcDbLine
 10
412.69135425501
 20
138.5015475227386
 30
0.0
 11
415.94135425501
 21
138.5015470966656
 31
0.0
  0
LINE
  5
3B7
330
71
100
AcDbEntity
  8
Visible (ANSI)
100
AcDbLine
 10
415.94135425501
 20
138.5015470966656
 30
0.0
 11
415.9413568638881
 21
158.4015470966654
 31
0.0
  0
LINE
  5
3B8
330
71
100
AcDbEntity
  8
Visible (ANSI)
100
AcDbLine
 10
415.9413568638881
 20
158.4015470966654
 30
0.0
 11
412.6913568638881
 21
158.4015475227385
 31
0.0
  0
LINE
  5
3B9
330
71
100
AcDbEntity
  8
Visible (ANSI)
100
AcDbLine
 10
427.039472911879
 20
188.7462881128067
 30
0.0
 11
478.332763497751
 21
188.7462881128068
 31
0.0
  0
ARC
  5
3BA
330
71
100
AcDbEntity
  8
Visible (ANSI)
100
AcDbCircle
 10
478.2621306275875
 20
185.8171768219239
 30
0.0
 40
2.929962791013763
100
AcDbArc
 50
1.282224989294071
 51
88.61863179502583
  0
LINE
  5
3BB
330
71
100
AcDbEntity
  8
Visible (ANSI)
100
AcDbLine
 10
481.19135975463
 20
185.8827411263271
 30
0.0
 11
481.19135975463
 21
175.0098199607257
 31
0.0
  0
ARC
  5
3BC
330
71
100
AcDbEntity
  8
Visible (ANSI)
100
AcDbCircle
 10
478.2621306275875
 20
175.0753842651292
 30
0.0
 40
2.929962791013775
100
AcDbArc
 50
271.3935941682626
 51
358.7177750107005
  0
SPLINE
  5
3BD
330
71
100
AcDbEntity
  8
Visible (ANSI)
100
AcDbSpline
210
0.0
220
0.0
230
1.0
 70
     8
 71
     3
 72
    16
 73
    12
 74
     0
 42
0.000000001
 43
0.0000000001
 40
0.0
 40
0.0
 40
0.0
 40
0.0
 40
0.0585926581151691
 40
0.0585926581151691
 40
0.1171877328902347
 40
0.1171877328902347
 40
0.1757870619714851
 40
0.1757870619714851
 40
0.2340527723802857
 40
0.2340527723802857
 40
0.2363584468799619
 40
0.2363584468799619
 40
0.2363584468799619
 40
0.2363584468799619
 10
478.332763497751
 20
188.7462881128068
 30
0.0
 10
478.332763497751
 20
188.7462881128068
 30
0.0
 10
478.3332272769485
 20
188.7844336052944
 30
0.0
 10
478.3349816439241
 20
188.9327230525251
 30
0.0
 10
478.3362524851017
 20
189.0414518409612
 30
0.0
 10
478.3393403196113
 20
189.3158419543469
 30
0.0
 10
478.34112551801
 20
189.4788843116376
 30
0.0
 10
478.3448983156694
 20
189.8372742222401
 30
0.0
 10
478.3468488859426
 20
190.0290463290457
 30
0.0
 10
478.3488331808818
 20
190.2309177702506
 30
0.0
 10
478.3489086229026
 20
190.2386028843285
 30
0.0
 10
478.3489839679961
 20
190.2462881128068
 30
0.0
  0
SPLINE
  5
3BE
330
71
100
AcDbEntity
  8
Visible (ANSI)
100
AcDbSpline
210
0.0
220
0.0
230
1.0
 70
     8
 71
     3
 72
    16
 73
    12
 74
     0
 42
0.000000001
 43
0.0000000001
 40
0.0
 40
0.0
 40
0.0
 40
0.0
 40
0.0585928022195144
 40
0.0585928022195144
 40
0.1171879343232664
 40
0.1171879343232664
 40
0.1757871679580239
 40
0.1757871679580239
 40
0.2340317175703914
 40
0.2340317175703914
 40
0.2363580228152859
 40
0.2363580228152859
 40
0.2363580228152859
 40
0.2363580228152859
 10
427.039472911879
 20
188.7462881128067
 30
0.0
 10
427.0394729118788
 20
188.7462881128067
 30
0.0
 10
427.0399282891431
 20
188.7844337950257
 30
0.0
 10
427.0416508728877
 20
188.9327239199315
 30
0.0
 10
427.0428986894899
 20
189.0414530978564
 30
0.0
 10
427.0459305766613
 20
189.3158438881694
 30
0.0
 10
427.0476834269049
 20
189.478886370172
 30
0.0
 10
427.0513871931647
 20
189.8372119147703
 30
0.0
 10
427.0533017093833
 20
190.0289106352812
 30
0.0
 10
427.0552500760384
 20
190.2307802157327
 30
0.0
 10
427.0553248148096
 20
190.2385341055392
 30
0.0
 10
427.0553994567115
 20
190.2462881128067
 30
0.0
  0
SPLINE
  5
3BF
330
71
100
AcDbEntity
  8
Visible (ANSI)
100
AcDbSpline
210
0.0
220
0.0
230
1.0
 70
     8
 71
     3
 72
    16
 73
    12
 74
     0
 42
0.000000001
 43
0.0000000001
 40
-0.2339662532914478
 40
-0.2339662532914478
 40
-0.2339662532914478
 40
-0.2339662532914478
 40
-0.175372933843156
 40
-0.175372933843156
 40
-0.1167775321513121
 40
-0.1167775321513121
 40
-0.0581784649128223
 40
-0.0581784649128223
 40
0.0
 40
0.0
 40
0.0023909343266661
 40
0.0023909343266661
 40
0.0023909343266661
 40
0.0023909343266661
 10
481.19135975463
 20
185.8827411263271
 30
0.0
 10
481.19135975463
 20
185.8827411263272
 30
0.0
 10
481.2295059783091
 20
185.8831716246547
 30
0.0
 10
481.3777980371793
 20
185.8848000954048
 30
0.0
 10
481.4865283266308
 20
185.885979734559
 30
0.0
 10
481.7609210487549
 20
185.8888459586044
 30
0.0
 10
481.9239638866483
 20
185.8905030250862
 30
0.0
 10
482.2820879510564
 20
185.8940024258
 30
0.0
 10
482.4735570290934
 20
185.8958102259002
 30
0.0
 10
482.6754209798109
 20
185.8976522082442
 30
0.0
 10
482.6833903035248
 20
185.8977248286493
 30
0.0
 10
482.6913597546299
 20
185.8977973523491
 30
0.0
  0
SPLINE
  5
3C0
330
71
100
AcDbEntity
  8
Visible (ANSI)
100
AcDbSpline
210
0.0
220
0.0
230
1.0
 70
     8
 71
     3
 72
    16
 73
    12
 74
     0
 42
0.000000001
 43
0.0000000001
 40
-0.2363567601020074
 40
-0.2363567601020074
 40
-0.2363567601020074
 40
-0.2363567601020074
 40
-0.2339658300999972
 40
-0.2339658300999972
 40
-0.1757874704184078
 40
-0.1757874704184078
 40
-0.1171885091722823
 40
-0.1171885091722823
 40
-0.0585932134662739
 40
-0.0585932134662739
 40
0.0
 40
0.0
 40
0.0
 40
0.0
 10
482.6913597546299
 20
174.9947637347035
 30
0.0
 10
482.683390303525
 20
174.9948362584033
 30
0.0
 10
482.6754209798107
 20
174.9949088788111
 30
0.0
 10
482.4735570290999
 20
174.9967508611337
 30
0.0
 10
482.2820879510577
 20
174.9985586612526
 30
0.0
 10
481.9239638866489
 20
175.0020580619663
 30
0.0
 10
481.760921048755
 20
175.0037151284489
 30
0.0
 10
481.4865283266307
 20
175.0065813524944
 30
0.0
 10
481.3777980371794
 20
175.0077609916471
 30
0.0
 10
481.2295059783091
 20
175.0093894623974
 30
0.0
 10
481.19135975463
 20
175.0098199607257
 30
0.0
 10
481.19135975463
 20
175.0098199607257
 30
0.0
  0
SPLINE
  5
3C1
330
71
100
AcDbEntity
  8
Visible (ANSI)
100
AcDbSpline
210
0.0
220
0.0
230
1.0
 70
     8
 71
     3
 72
    16
 73
    12
 74
     0
 42
0.000000001
 43
0.0000000001
 40
-0.234063352434861
 40
-0.234063352434861
 40
-0.234063352434861
 40
-0.234063352434861
 40
-0.1754706403915957
 40
-0.1754706403915957
 40
-0.1168754687201148
 40
-0.1168754687201148
 40
-0.0582759670929937
 40
-0.0582759670929937
 40
0.0
 40
0.0
 40
0.0022958066201002
 40
0.0022958066201002
 40
0.0022958066201002
 40
0.0022958066201002
 10
478.3333885196115
 20
172.1462881128069
 30
0.0
 10
478.3333885196114
 20
172.1462881128069
 30
0.0
 10
478.3338564027912
 20
172.1081427142564
 30
0.0
 10
478.3356262945194
 20
171.9598536025474
 30
0.0
 10
478.3369083822444
 20
171.8511250069504
 30
0.0
 10
478.3400235447675
 20
171.5767352287171
 30
0.0
 10
478.3418245439887
 20
171.4136929331729
 30
0.0
 10
478.3456310631033
 20
171.0552722119337
 30
0.0
 10
478.3475992468138
 20
170.8634649724732
 30
0.0
 10
478.3496010913764
 20
170.6615926287427
 30
0.0
 10
478.3496768747647
 20
170.6539404272553
 30
0.0
 10
478.3497525611997
 20
170.6462881128068
 30
0.0
  0
LINE
  5
3C2
330
71
100
AcDbEntity
  8
Visible (ANSI)
100
AcDbLine
 10
478.3333885196115
 20
172.1462881128069
 30
0.0
 11
426.900129885509
 21
172.1462881128068
 31
0.0
  0
SPLINE
  5
3C3
330
71
100
AcDbEntity
  8
Visible (ANSI)
100
AcDbSpline
210
0.0
220
0.0
230
1.0
 70
     8
 71
     3
 72
    16
 73
    12
 74
     0
 42
0.000000001
 43
0.0000000001
 40
0.0
 40
0.0
 40
0.0
 40
0.0
 40
0.0585927308726048
 40
0.0585927308726048
 40
0.1171878345926509
 40
0.1171878345926509
 40
0.1757871154836078
 40
0.1757871154836078
 40
0.2340422615434225
 40
0.2340422615434225
 40
0.2363582338466401
 40
0.2363582338466401
 40
0.2363582338466401
 40
0.2363582338466401
 10
426.900129885509
 20
172.1462881128068
 30
0.0
 10
426.900129885509
 20
172.1462881128068
 30
0.0
 10
426.8996703291852
 20
172.108142524525
 30
0.0
 10
426.8979319367002
 20
171.9598527351404
 30
0.0
 10
426.8966726678558
 20
171.8511237500537
 30
0.0
 10
426.8936129529416
 20
171.5767332948911
 30
0.0
 10
426.8918440130123
 20
171.4136908746338
 30
0.0
 10
426.8881059119404
 20
171.0553330951938
 30
0.0
 10
426.8861734635874
 20
170.8635976240056
 30
0.0
 10
426.8842072265464
 20
170.6617271155849
 30
0.0
 10
426.88413213724
 20
170.6540076721596
 30
0.0
 10
426.884057144834
 20
170.6462881128068
 30
0.0
  0
ARC
  5
3C4
330
71
100
AcDbEntity
  8
Visible (ANSI)
100
AcDbCircle
 10
426.9701196268676
 20
175.0754148415145
 30
0.0
 40
2.929962791013762
100
AcDbArc
 50
181.3858285014157
 51
268.6312118800072
  0
SPLINE
  5
3C5
330
71
100
AcDbEntity
  8
Visible (ANSI)
100
AcDbSpline
210
0.0
220
0.0
230
1.0
 70
     8
 71
     3
 72
    16
 73
    12
 74
     0
 42
0.000000001
 43
0.0000000001
 40
-0.2340569598085044
 40
-0.2340569598085044
 40
-0.2340569598085044
 40
-0.2340569598085044
 40
-0.1754642037648497
 40
-0.1754642037648497
 40
-0.116869015426163
 40
-0.116869015426163
 40
-0.0582695452542641
 40
-0.0582695452542641
 40
0.0
 40
0.0
 40
0.0023020622833774
 40
0.0023020622833774
 40
0.0023020622833774
 40
0.0023020622833774
 10
424.0410138434071
 20
175.004553949453
 30
0.0
 10
424.0410138434071
 20
175.004553949453
 30
0.0
 10
424.002868385094
 20
175.0040886730315
 30
0.0
 10
423.8545790599261
 20
175.0023286422819
 30
0.0
 10
423.7458503416451
 20
175.0010536981165
 30
0.0
 10
423.4714603501879
 20
174.9979558937513
 30
0.0
 10
423.3084180153605
 20
174.9961649308723
 30
0.0
 10
422.9500168173593
 20
174.9923798310718
 30
0.0
 10
422.7582318401582
 20
174.9904228352202
 30
0.0
 10
422.5563600691537
 20
174.9884321378035
 30
0.0
 10
422.5486870132176
 20
174.9883565710834
 30
0.0
 10
422.5410138434071
 20
174.9882811013002
 30
0.0
  0
LINE
  5
3C6
330
71
100
AcDbEntity
  8
Visible (ANSI)
100
AcDbLine
 10
424.0410138434071
 20
175.004553949453
 30
0.0
 11
424.0410138434071
 21
185.7462853534728
 31
0.0
  0
SPLINE
  5
3C7
330
71
100
AcDbEntity
  8
Visible (ANSI)
100
AcDbSpline
210
0.0
220
0.0
230
1.0
 70
     8
 71
     3
 72
    16
 73
    12
 74
     0
 42
0.000000001
 43
0.0000000001
 40
-0.2340569598275117
 40
-0.2340569598275117
 40
-0.2340569598275117
 40
-0.2340569598275117
 40
-0.1754642037789417
 40
-0.1754642037789417
 40
-0.1168690154353057
 40
-0.1168690154353057
 40
-0.0582695452584616
 40
-0.0582695452584616
 40
0.0
 40
0.0
 40
0.002302062283445
 40
0.002302062283445
 40
0.002302062283445
 40
0.002302062283445
 10
424.0410138434071
 20
185.7462853534728
 30
0.0
 10
424.0410138434071
 20
185.7462853534728
 30
0.0
 10
424.002868385094
 20
185.7458200770518
 30
0.0
 10
423.8545790599263
 20
185.7440600463022
 30
0.0
 10
423.7458503416452
 20
185.7427851021368
 30
0.0
 10
423.4714603501879
 20
185.7396872977716
 30
0.0
 10
423.3084180153605
 20
185.7378963348923
 30
0.0
 10
422.9500168173618
 20
185.7341112350918
 30
0.0
 10
422.7582318401716
 20
185.7321542392534
 30
0.0
 10
422.5563600691531
 20
185.7301635418206
 30
0.0
 10
422.5486870132178
 20
185.7300879751031
 30
0.0
 10
422.5410138434072
 20
185.73001250532
 30
0.0
  0
ARC
  5
3C8
330
71
100
AcDbEntity
  8
Visible (ANSI)
100
AcDbCircle
 10
426.9701196268676
 20
185.8171462455386
 30
0.0
 40
2.92996279101376
100
AcDbArc
 50
88.64366138169351
 51
181.3858285014983
  0
LINE
  5
3C9
330
71
100
AcDbEntity
  8
Visible (ANSI)
100
AcDbLine
 10
488.1913597546299
 20
195.7462881128068
 30
0.0
 11
412.6913597546299
 21
195.7462881128068
 31
0.0
  0
LINE
  5
3CA
330
71
100
AcDbEntity
  8
Visible (ANSI)
100
AcDbLine
 10
488.1913597546299
 20
195.7462881128068
 30
0.0
 11
488.1913597546299
 21
193.7462881128068
 31
0.0
  0
LINE
  5
3CB
330
71
100
AcDbEntity
  8
Visible (ANSI)
100
AcDbLine
 10
412.6913597546299
 20
165.1462881128067
 30
0.0
 11
488.1913597546299
 21
165.1462881128069
 31
0.0
  0
LINE
  5
3CC
330
71
100
AcDbEntity
  8
Visible (ANSI)
100
AcDbLine
 10
488.1913597546299
 20
167.146288112807
 30
0.0
 11
488.1913597546299
 21
165.146288112807
 31
0.0
  0
ARC
  5
3CD
330
71
100
AcDbEntity
  8
Visible (ANSI)
100
AcDbCircle
 10
372.5897478032559
 20
180.5015474710174
 30
0.0
 40
37.10161195137396
100
AcDbArc
 50
316.4090769736655
 51
43.59092302777289
  0
ENDSEC
  0
SECTION
  2
OBJECTS
  0
DICTIONARY
  5
C
330
0
100
AcDbDictionary
281
     1
  3
ACAD_CIP_PREVIOUS_PRODUCT_INFO
350
3CE
  3
ACAD_COLOR
350
63
  3
ACAD_DETAILVIEWSTYLE
350
6B
  3
ACAD_GROUP
350
D
  3
ACAD_LAYOUT
350
62
  3
ACAD_MATERIAL
350
10
  3
ACAD_MLEADERSTYLE
350
66
  3
ACAD_MLINESTYLE
350
5F
  3
ACAD_PLOTSETTINGS
350
61
  3
ACAD_PLOTSTYLENAME
350
E
  3
ACAD_SCALELIST
350
42
  3
ACAD_SECTIONVIEWSTYLE
350
68
  3
ACAD_TABLESTYLE
350
64
  3
ACAD_VISUALSTYLE
350
29
  3
ACDB_RECOMPOSE_DATA
350
3D7
  3
AcDbVariableDictionary
350
3CF
  0
XRECORD
  5
3CE
102
{ACAD_REACTORS
330
C
102
}
330
C
100
AcDbXrecord
280
     1
300
INVPROSA
300
2013
300
INVPROSA_F_S
  0
DICTIONARY
  5
63
102
{ACAD_REACTORS
330
C
102
}
330
C
100
AcDbDictionary
281
     1
  0
DICTIONARY
  5
6B
102
{ACAD_REACTORS
330
C
102
}
330
C
100
AcDbDictionary
281
     1
  3
Imperial24
350
6C
  0
DICTIONARY
  5
D
102
{ACAD_REACTORS
330
C
102
}
330
C
100
AcDbDictionary
281
     1
  0
DICTIONARY
  5
62
102
{ACAD_REACTORS
330
C
102
}
330
C
100
AcDbDictionary
281
     1
  3
Layout1
350
70
  3
Layout2
350
78
  3
Model
350
74
  0
DICTIONARY
  5
10
102
{ACAD_REACTORS
330
C
102
}
330
C
100
AcDbDictionary
281
     1
  3
ByBlock
350
19
  3
ByLayer
350
11
  3
Global
350
21
  0
DICTIONARY
  5
66
102
{ACAD_REACTORS
330
C
102
}
330
C
100
AcDbDictionary
281
     1
  3
Standard
350
67
  0
DICTIONARY
  5
5F
102
{ACAD_REACTORS
330
C
102
}
330
C
100
AcDbDictionary
281
     1
  3
Standard
350
60
  0
DICTIONARY
  5
61
102
{ACAD_REACTORS
330
C
102
}
330
C
100
AcDbDictionary
281
     1
  0
ACDBDICTIONARYWDFLT
  5
E
102
{ACAD_REACTORS
330
C
102
}
330
C
100
AcDbDictionary
281
     1
  3
Normal
350
F
100
AcDbDictionaryWithDefault
340
F
  0
DICTIONARY
  5
42
102
{ACAD_REACTORS
330
C
102
}
330
C
100
AcDbDictionary
281
     1
  3
A0
350
43
  3
A1
350
44
  3
A2
350
45
  3
A3
350
46
  3
A4
350
47
  3
A5
350
48
  3
A6
350
49
  3
A7
350
4A
  3
A8
350
4B
  3
A9
350
4C
  3
B0
350
4D
  3
B1
350
4E
  3
B2
350
4F
  3
B3
350
50
  3
B4
350
51
  3
B5
350
52
  3
B6
350
53
  0
DICTIONARY
  5
68
102
{ACAD_REACTORS
330
C
102
}
330
C
100
AcDbDictionary
281
     1
  3
Imperial24
350
6A
  0
DICTIONARY
  5
64
102
{ACAD_REACTORS
330
C
102
}
330
C
100
AcDbDictionary
281
     1
  3
Standard
350
65
  0
DICTIONARY
  5
29
102
{ACAD_REACTORS
330
C
102
}
330
C
100
AcDbDictionary
281
     1
  3
2dWireframe
350
2F
  3
Basic
350
2E
  3
Brighten
350
35
  3
ColorChange
350
39
  3
Conceptual
350
32
  3
Dim
350
34
  3
EdgeColorOff
350
41
  3
Facepattern
350
38
  3
Flat
350
2A
  3
FlatWithEdges
350
2B
  3
Gouraud
350
2C
  3
GouraudWithEdges
350
2D
  3
Hidden
350
31
  3
JitterOff
350
3F
  3
Linepattern
350
37
  3
OverhangOff
350
40
  3
Realistic
350
33
  3
Shaded
350
3E
  3
Shaded with edges
350
3D
  3
Shades of Gray
350
3A
  3
Sketchy
350
3B
  3
Thicken
350
36
  3
Wireframe
350
30
  3
X-Ray
350
3C
  0
XRECORD
  5
3D7
102
{ACAD_REACTORS
330
C
102
}
330
C
100
AcDbXrecord
280
     1
 90
        1
330
65
  0
DICTIONARY
  5
3CF
102
{ACAD_REACTORS
330
C
102
}
330
C
100
AcDbDictionary
281
     1
  3
CANNOSCALE
350
3D4
  3
CMLEADERSTYLE
350
3D1
  3
CTABLESTYLE
350
3D0
  3
CVIEWDETAILSTYLE
350
3D2
  3
CVIEWSECTIONSTYLE
350
3D3
  0
ACDBDETAILVIEWSTYLE
  5
6C
102
{ACAD_REACTORS
330
6B
102
}
330
6B
100
AcDbModelDocViewStyle
 70
     0
  3
Imperial24
290
     1
100
AcDbDetailViewStyle
 70
     0
 71
     0
 90
        3
 71
     1
340
55
 62
   256
 40
0.24
340
0
 62
   256
 40
0.24
300

 40
0.36
280
     3
 71
     2
340
5D
 90
       25
 62
   256
 71
     3
340
55
 62
   256
 40
0.24
 90
        1
 40
0.75
 90
        1
300
%<\AcVar ViewType \f "%tc1">% %<\AcVar ViewDetailId>%\PSCALE %<\AcVar ViewScale \f "%sn">%
 71
     4
340
5D
 90
       25
 62
   256
340
5D
 90
       25
 62
   256
280
     0
  0
LAYOUT
  5
70
102
{ACAD_REACTORS
330
62
102
}
330
62
100
AcDbPlotSettings
  1

  2

  4

  6

 40
0.0
 41
0.0
 42
0.0
 43
0.0
 44
0.0
 45
0.0
 46
0.0
 47
0.0
 48
0.0
 49
0.0
140
0.0
141
0.0
142
1.0
143
1.0
 70
   688
 72
     0
 73
     0
 74
     5
  7

 75
    16
147
1.0
 76
     0
 77
     2
 78
   300
148
0.0
149
0.0
100
AcDbLayout
  1
Layout1
 70
     1
 71
     1
 10
0.0
 20
0.0
 11
12.0
 21
9.0
 12
0.0
 22
0.0
 32
0.0
 14
0.0
 24
0.0
 34
0.0
 15
0.0
 25
0.0
 35
0.0
146
0.0
 13
0.0
 23
0.0
 33
0.0
 16
1.0
 26
0.0
 36
0.0
 17
0.0
 27
1.0
 37
0.0
 76
     0
330
6D
  0
LAYOUT
  5
78
102
{ACAD_REACTORS
330
62
102
}
330
62
100
AcDbPlotSettings
  1

  2

  4

  6

 40
0.0
 41
0.0
 42
0.0
 43
0.0
 44
0.0
 45
0.0
 46
0.0
 47
0.0
 48
0.0
 49
0.0
140
0.0
141
0.0
142
1.0
143
1.0
 70
   688
 72
     0
 73
     0
 74
     5
  7

 75
    16
147
1.0
 76
     0
 77
     2
 78
   300
148
0.0
149
0.0
100
AcDbLayout
  1
Layout2
 70
     1
 71
     2
 10
0.0
 20
0.0
 11
12.0
 21
9.0
 12
0.0
 22
0.0
 32
0.0
 14
0.0
 24
0.0
 34
0.0
 15
0.0
 25
0.0
 35
0.0
146
0.0
 13
0.0
 23
0.0
 33
0.0
 16
1.0
 26
0.0
 36
0.0
 17
0.0
 27
1.0
 37
0.0
 76
     0
330
75
  0
LAYOUT
  5
74
102
{ACAD_REACTORS
330
62
102
}
330
62
100
AcDbPlotSettings
  1

  2

  4

  6

 40
0.0
 41
0.0
 42
0.0
 43
0.0
 44
0.0
 45
0.0
 46
0.0
 47
0.0
 48
0.0
 49
0.0
140
0.0
141
0.0
142
1.0
143
1.0
 70
  1712
 72
     0
 73
     0
 74
     0
  7

 75
     0
147
1.0
 76
     0
 77
     2
 78
   300
148
0.0
149
0.0
100
AcDbLayout
  1
Model
 70
     1
 71
     0
 10
0.0
 20
0.0
 11
12.0
 21
9.0
 12
0.0
 22
0.0
 32
0.0
 14
0.0
 24
0.0
 34
0.0
 15
0.0
 25
0.0
 35
0.0
146
0.0
 13
0.0
 23
0.0
 33
0.0
 16
1.0
 26
0.0
 36
0.0
 17
0.0
 27
1.0
 37
0.0
 76
     0
330
71
  0
MATERIAL
  5
19
102
{ACAD_XDICTIONARY
360
1A
102
}
102
{ACAD_REACTORS
330
10
102
}
330
10
100
AcDbMaterial
  1
ByBlock
 72
     0
 43
0.0208333333333333
 43
0.0
 43
0.0
 43
0.0
 43
0.0
 43
0.0208333333333333
 43
0.0
 43
0.0
 43
0.0
 43
0.0
 43
1.0
 43
0.0
 43
0.0
 43
0.0
 43
0.0
 43
1.0
 77
     0
 47
0.0208333333333333
 47
0.0
 47
0.0
 47
0.0
 47
0.0
 47
0.0208333333333333
 47
0.0
 47
0.0
 47
0.0
 47
0.0
 47
1.0
 47
0.0
 47
0.0
 47
0.0
 47
0.0
 47
1.0
171
     0
 49
0.0208333333333333
 49
0.0
 49
0.0
 49
0.0
 49
0.0
 49
0.0208333333333333
 49
0.0
 49
0.0
 49
0.0
 49
0.0
 49
1.0
 49
0.0
 49
0.0
 49
0.0
 49
0.0
 49
1.0
175
     0
142
0.0208333333333333
142
0.0
142
0.0
142
0.0
142
0.0
142
0.0208333333333333
142
0.0
142
0.0
142
0.0
142
0.0
142
1.0
142
0.0
142
0.0
142
0.0
142
0.0
142
1.0
179
     0
144
0.0208333333333333
144
0.0
144
0.0
144
0.0
144
0.0
144
0.0208333333333333
144
0.0
144
0.0
144
0.0
144
0.0
144
1.0
144
0.0
144
0.0
144
0.0
144
0.0
144
1.0
147
0.0208333333333333
147
0.0
147
0.0
147
0.0
147
0.0
147
0.0208333333333333
147
0.0
147
0.0
147
0.0
147
0.0
147
1.0
147
0.0
147
0.0
147
0.0
147
0.0
147
1.0
  0
MATERIAL
  5
11
102
{ACAD_XDICTIONARY
360
12
102
}
102
{ACAD_REACTORS
330
10
102
}
330
10
100
AcDbMaterial
  1
ByLayer
 72
     0
 43
0.0208333333333333
 43
0.0
 43
0.0
 43
0.0
 43
0.0
 43
0.0208333333333333
 43
0.0
 43
0.0
 43
0.0
 43
0.0
 43
1.0
 43
0.0
 43
0.0
 43
0.0
 43
0.0
 43
1.0
 77
     0
 47
0.0208333333333333
 47
0.0
 47
0.0
 47
0.0
 47
0.0
 47
0.0208333333333333
 47
0.0
 47
0.0
 47
0.0
 47
0.0
 47
1.0
 47
0.0
 47
0.0
 47
0.0
 47
0.0
 47
1.0
171
     0
 49
0.0208333333333333
 49
0.0
 49
0.0
 49
0.0
 49
0.0
 49
0.0208333333333333
 49
0.0
 49
0.0
 49
0.0
 49
0.0
 49
1.0
 49
0.0
 49
0.0
 49
0.0
 49
0.0
 49
1.0
175
     0
142
0.0208333333333333
142
0.0
142
0.0
142
0.0
142
0.0
142
0.0208333333333333
142
0.0
142
0.0
142
0.0
142
0.0
142
1.0
142
0.0
142
0.0
142
0.0
142
0.0
142
1.0
179
     0
144
0.0208333333333333
144
0.0
144
0.0
144
0.0
144
0.0
144
0.0208333333333333
144
0.0
144
0.0
144
0.0
144
0.0
144
1.0
144
0.0
144
0.0
144
0.0
144
0.0
144
1.0
147
0.0208333333333333
147
0.0
147
0.0
147
0.0
147
0.0
147
0.0208333333333333
147
0.0
147
0.0
147
0.0
147
0.0
147
1.0
147
0.0
147
0.0
147
0.0
147
0.0
147
1.0
  0
MATERIAL
  5
21
102
{ACAD_XDICTIONARY
360
22
102
}
102
{ACAD_REACTORS
330
10
102
}
330
10
100
AcDbMaterial
  1
Global
 72
     0
 43
0.0208333333333333
 43
0.0
 43
0.0
 43
0.0
 43
0.0
 43
0.0208333333333333
 43
0.0
 43
0.0
 43
0.0
 43
0.0
 43
1.0
 43
0.0
 43
0.0
 43
0.0
 43
0.0
 43
1.0
 77
     0
 47
0.0208333333333333
 47
0.0
 47
0.0
 47
0.0
 47
0.0
 47
0.0208333333333333
 47
0.0
 47
0.0
 47
0.0
 47
0.0
 47
1.0
 47
0.0
 47
0.0
 47
0.0
 47
0.0
 47
1.0
171
     0
 49
0.0208333333333333
 49
0.0
 49
0.0
 49
0.0
 49
0.0
 49
0.0208333333333333
 49
0.0
 49
0.0
 49
0.0
 49
0.0
 49
1.0
 49
0.0
 49
0.0
 49
0.0
 49
0.0
 49
1.0
175
     0
142
0.0208333333333333
142
0.0
142
0.0
142
0.0
142
0.0
142
0.0208333333333333
142
0.0
142
0.0
142
0.0
142
0.0
142
1.0
142
0.0
142
0.0
142
0.0
142
0.0
142
1.0
179
     0
144
0.0208333333333333
144
0.0
144
0.0
144
0.0
144
0.0
144
0.0208333333333333
144
0.0
144
0.0
144
0.0
144
0.0
144
1.0
144
0.0
144
0.0
144
0.0
144
0.0
144
1.0
147
0.0208333333333333
147
0.0
147
0.0
147
0.0
147
0.0
147
0.0208333333333333
147
0.0
147
0.0
147
0.0
147
0.0
147
1.0
147
0.0
147
0.0
147
0.0
147
0.0
147
1.0
  0
MLEADERSTYLE
  5
67
102
{ACAD_REACTORS
330
66
102
}
330
66
100
AcDbMLeaderStyle
179
     2
170
     2
171
     1
172
     0
 90
        2
 40
0.0
 41
0.0
173
     1
 91
-1056964608
340
5B
 92
       -2
290
     1
 42
0.09
291
     1
 43
0.36
  3
Standard
 44
0.18
300

342
55
174
     1
178
     6
175
     1
176
     0
 93
-1056964608
 45
0.18
292
     0
297
     0
 46
0.18
 94
-1056964608
 47
1.0
 49
1.0
140
1.0
293
     1
141
0.0
294
     1
177
     0
142
1.0
295
     1
296
     0
143
0.125
271
     0
272
     9
273
     9
298
     1
  0
MLINESTYLE
  5
60
102
{ACAD_REACTORS
330
5F
102
}
330
5F
100
AcDbMlineStyle
  2
STANDARD
 70
     0
  3

 62
   256
 51
90.0
 52
90.0
 71
     2
 49
0.5
 62
   256
  6
BYLAYER
 49
-0.5
 62
   256
  6
BYLAYER
  0
ACDBPLACEHOLDER
  5
F
102
{ACAD_REACTORS
330
E
102
}
330
E
  0
SCALE
  5
43
102
{ACAD_REACTORS
330
42
102
}
330
42
100
AcDbScale
 70
     0
300
1:1
140
1.0
141
1.0
290
     1
  0
SCALE
  5
44
102
{ACAD_REACTORS
330
42
102
}
330
42
100
AcDbScale
 70
     0
300
1/128" = 1'-0"
140
0.0078125
141
12.0
290
     0
  0
SCALE
  5
45
102
{ACAD_REACTORS
330
42
102
}
330
42
100
AcDbScale
 70
     0
300
1/64" = 1'-0"
140
0.015625
141
12.0
290
     0
  0
SCALE
  5
46
102
{ACAD_REACTORS
330
42
102
}
330
42
100
AcDbScale
 70
     0
300
1/32" = 1'-0"
140
0.03125
141
12.0
290
     0
  0
SCALE
  5
47
102
{ACAD_REACTORS
330
42
102
}
330
42
100
AcDbScale
 70
     0
300
1/16" = 1'-0"
140
0.0625
141
12.0
290
     0
  0
SCALE
  5
48
102
{ACAD_REACTORS
330
42
102
}
330
42
100
AcDbScale
 70
     0
300
3/32" = 1'-0"
140
0.09375
141
12.0
290
     0
  0
SCALE
  5
49
102
{ACAD_REACTORS
330
42
102
}
330
42
100
AcDbScale
 70
     0
300
1/8" = 1'-0"
140
0.125
141
12.0
290
     0
  0
SCALE
  5
4A
102
{ACAD_REACTORS
330
42
102
}
330
42
100
AcDbScale
 70
     0
300
3/16" = 1'-0"
140
0.1875
141
12.0
290
     0
  0
SCALE
  5
4B
102
{ACAD_REACTORS
330
42
102
}
330
42
100
AcDbScale
 70
     0
300
1/4" = 1'-0"
140
0.25
141
12.0
290
     0
  0
SCALE
  5
4C
102
{ACAD_REACTORS
330
42
102
}
330
42
100
AcDbScale
 70
     0
300
3/8" = 1'-0"
140
0.375
141
12.0
290
     0
  0
SCALE
  5
4D
102
{ACAD_REACTORS
330
42
102
}
330
42
100
AcDbScale
 70
     0
300
1/2" = 1'-0"
140
0.5
141
12.0
290
     0
  0
SCALE
  5
4E
102
{ACAD_REACTORS
330
42
102
}
330
42
100
AcDbScale
 70
     0
300
3/4" = 1'-0"
140
0.75
141
12.0
290
     0
  0
SCALE
  5
4F
102
{ACAD_REACTORS
330
42
102
}
330
42
100
AcDbScale
 70
     0
300
1" = 1'-0"
140
1.0
141
12.0
290
     0
  0
SCALE
  5
50
102
{ACAD_REACTORS
330
42
102
}
330
42
100
AcDbScale
 70
     0
300
1-1/2" = 1'-0"
140
1.5
141
12.0
290
     0
  0
SCALE
  5
51
102
{ACAD_REACTORS
330
42
102
}
330
42
100
AcDbScale
 70
     0
300
3" = 1'-0"
140
3.0
141
12.0
290
     0
  0
SCALE
  5
52
102
{ACAD_REACTORS
330
42
102
}
330
42
100
AcDbScale
 70
     0
300
6" = 1'-0"
140
6.0
141
12.0
290
     0
  0
SCALE
  5
53
102
{ACAD_REACTORS
330
42
102
}
330
42
100
AcDbScale
 70
     0
300
1'-0" = 1'-0"
140
12.0
141
12.0
290
     0
  0
ACDBSECTIONVIEWSTYLE
  5
6A
102
{ACAD_REACTORS
330
68
102
}
330
68
100
AcDbModelDocViewStyle
 70
     0
  3
Imperial24
290
     1
100
AcDbSectionViewStyle
 70
     0
 71
     0
 90
       78
 71
     1
340
55
 62
   256
 40
0.24
340
0
340
0
 62
   256
 40
0.24
300
I, O, Q, S, X, Z
 40
0.48
 90
        3
 40
0.18
 90
        1
 71
     2
340
69
 90
       25
 62
   256
340
5D
 90
       50
 62
   256
 40
0.24
 40
0.0
 40
0.24
 71
     3
340
55
 62
   256
 40
0.24
 90
        1
 40
0.75
 90
        1
300
%<\AcVar ViewType \f "%tc1">% %<\AcVar ViewSectionStartId>%-%<\AcVar ViewSectionEndId>%\PSCALE %<\AcVar ViewScale \f "%sn">%
 71
     4
 62
   256
 62
   257
300
ANSI31
 40
1.0
 90
        0
290
     0
290
     0
 90
        6
 40
0.0
 40
1.570796326794896
 40
0.2617993877991494
 40
1.308996938995747
 40
-0.2617993877991494
 40
1.832595714594046
  0
TABLESTYLE
  5
65
102
{ACAD_XDICTIONARY
360
3D5
102
}
102
{ACAD_REACTORS
330
64
102
}
330
64
100
AcDbTableStyle
280
     0
  3
Standard
 70
     0
 71
     0
 40
0.06
 41
0.06
280
     0
281
     0
  7
Standard
140
0.18
170
     2
 62
     0
 63
     7
283
     0
 90
      512
 91
        0
  1

274
    -2
284
     1
 64
     0
275
    -2
285
     1
 65
     0
276
    -2
286
     1
 66
     0
277
    -2
287
     1
 67
     0
278
    -2
288
     1
 68
     0
279
    -2
289
     1
 69
     0
  7
Standard
140
0.25
170
     5
 62
     0
 63
     7
283
     0
 90
      512
 91
        0
  1

274
    -2
284
     1
 64
     0
275
    -2
285
     1
 65
     0
276
    -2
286
     1
 66
     0
277
    -2
287
     1
 67
     0
278
    -2
288
     1
 68
     0
279
    -2
289
     1
 69
     0
  7
Standard
140
0.18
170
     5
 62
     0
 63
     7
283
     0
 90
      512
 91
        0
  1

274
    -2
284
     1
 64
     0
275
    -2
285
     1
 65
     0
276
    -2
286
     1
 66
     0
277
    -2
287
     1
 67
     0
278
    -2
288
     1
 68
     0
279
    -2
289
     1
 69
     0
  0
VISUALSTYLE
  5
2F
102
{ACAD_REACTORS
330
29
102
}
330
29
100
AcDbVisualStyle
  2
2dWireframe
 70
     4
177
     3
291
     0
 70
    58
 90
        0
176
     1
 90
        2
176
     1
 90
        0
176
     1
 90
        0
176
     1
 40
0.6
176
     1
 40
30.0
176
     1
 62
     7
420
 16777215
176
     1
 90
        1
176
     1
 90
        4
176
     1
 62
     7
176
     1
 62
   257
176
     1
 90
        1
176
     1
 90
        1
176
     1
 40
1.0
176
     1
 90
        0
176
     1
 62
   257
176
     1
 40
1.0
176
     1
 90
        1
176
     1
 90
        6
176
     1
 90
        2
176
     1
 62
     7
176
     1
 90
        5
176
     1
 90
        0
176
     1
 90
        0
176
     1
290
     0
176
     1
 90
        1
176
     1
 40
0.0
176
     1
 90
        0
176
     1
290
     1
176
     1
290
     1
176
     1
290
     0
176
     1
290
     0
176
     1
290
     0
176
     1
290
     0
176
     1
290
     0
176
     1
290
     0
176
     1
290
     0
176
     1
 90
       50
176
     1
 40
0.0
176
     1
 40
1.0
176
     1
 90
        0
176
     1
 62
    18
420
        0
176
     1
 90
       50
176
     1
 90
        3
176
     1
 62
     5
420
      255
176
     1
290
     0
176
     1
 90
       50
176
     1
 90
       50
176
     1
 90
       50
176
     1
290
     0
176
     1
 90
       50
176
     1
 62
   256
176
     0
 40
1.0
176
     0
 90
        2
176
     1
  1
strokes_ogs.tif
176
     1
290
     0
176
     1
 40
1.0
176
     1
 40
1.0
176
     1
  0
VISUALSTYLE
  5
2E
102
{ACAD_REACTORS
330
29
102
}
330
29
100
AcDbVisualStyle
  2
Basic
 70
     7
177
     3
291
     1
 70
    58
 90
        1
176
     1
 90
        0
176
     1
 90
        1
176
     1
 90
        0
176
     1
 40
0.6
176
     1
 40
30.0
176
     1
 62
     7
420
 16777215
176
     1
 90
        0
176
     1
 90
        4
176
     1
 62
     7
176
     1
 62
   257
176
     1
 90
        1
176
     1
 90
        1
176
     1
 40
1.0
176
     1
 90
        8
176
     1
 62
     7
176
     1
 40
1.0
176
     1
 90
        1
176
     1
 90
        6
176
     1
 90
        2
176
     1
 62
     7
176
     1
 90
        5
176
     1
 90
        0
176
     1
 90
        0
176
     1
290
     0
176
     1
 90
        1
176
     1
 40
0.0
176
     1
 90
        0
176
     1
290
     0
176
     1
290
     1
176
     1
290
     1
176
     1
290
     0
176
     1
290
     0
176
     1
290
     0
176
     1
290
     0
176
     1
290
     0
176
     1
290
     0
176
     1
 90
       50
176
     1
 40
0.0
176
     1
 40
1.0
176
     1
 90
        0
176
     1
 62
    18
420
        0
176
     1
 90
       50
176
     1
 90
        3
176
     1
 62
     5
420
      255
176
     1
290
     0
176
     1
 90
       50
176
     1
 90
       50
176
     1
 90
       50
176
     1
290
     0
176
     1
 90
       50
176
     1
 62
   256
176
     0
 40
1.0
176
     0
 90
        2
176
     1
  1
strokes_ogs.tif
176
     1
290
     0
176
     1
 40
1.0
176
     1
 40
1.0
176
     1
  0
VISUALSTYLE
  5
35
102
{ACAD_REACTORS
330
29
102
}
330
29
100
AcDbVisualStyle
  2
Brighten
 70
    12
177
     3
291
     1
 70
    58
 90
        2
176
     1
 90
        2
176
     1
 90
        0
176
     1
 90
        0
176
     1
 40
0.6
176
     1
 40
30.0
176
     1
 62
     7
420
 16777215
176
     1
 90
        1
176
     1
 90
        4
176
     1
 62
     7
176
     1
 62
   257
176
     1
 90
        1
176
     1
 90
        1
176
     1
 40
1.0
176
     1
 90
        8
176
     1
 62
     7
176
     1
 40
1.0
176
     1
 90
        1
176
     1
 90
        6
176
     1
 90
        2
176
     1
 62
     7
176
     1
 90
        5
176
     1
 90
        0
176
     1
 90
        0
176
     1
290
     0
176
     1
 90
        1
176
     1
 40
50.0
176
     1
 90
        0
176
     1
290
     0
176
     1
290
     1
176
     1
290
     1
176
     1
290
     0
176
     1
290
     0
176
     1
290
     0
176
     1
290
     0
176
     1
290
     0
176
     1
290
     0
176
     1
 90
       50
176
     1
 40
0.0
176
     1
 40
1.0
176
     1
 90
        0
176
     1
 62
    18
420
        0
176
     1
 90
       50
176
     1
 90
        3
176
     1
 62
     5
420
      255
176
     1
290
     0
176
     1
 90
       50
176
     1
 90
       50
176
     1
 90
       50
176
     1
290
     0
176
     1
 90
       50
176
     1
 62
   256
176
     0
 40
1.0
176
     0
 90
        2
176
     1
  1
strokes_ogs.tif
176
     1
290
     0
176
     1
 40
1.0
176
     1
 40
1.0
176
     1
  0
VISUALSTYLE
  5
39
102
{ACAD_REACTORS
330
29
102
}
330
29
100
AcDbVisualStyle
  2
ColorChange
 70
    16
177
     3
291
     1
 70
    58
 90
        2
176
     1
 90
        2
176
     1
 90
        3
176
     1
 90
        0
176
     1
 40
0.6
176
     1
 40
30.0
176
     1
 62
     8
420
  8421504
176
     1
 90
        1
176
     1
 90
        4
176
     1
 62
     7
176
     1
 62
   257
176
     1
 90
        1
176
     1
 90
        1
176
     1
 40
1.0
176
     1
 90
        8
176
     1
 62
     8
420
  8421504
176
     1
 40
1.0
176
     1
 90
        1
176
     1
 90
        6
176
     1
 90
        2
176
     1
 62
     7
176
     1
 90
        5
176
     1
 90
        0
176
     1
 90
        0
176
     1
290
     0
176
     1
 90
        1
176
     1
 40
0.0
176
     1
 90
        0
176
     1
290
     0
176
     1
290
     1
176
     1
290
     1
176
     1
290
     0
176
     1
290
     0
176
     1
290
     0
176
     1
290
     0
176
     1
290
     0
176
     1
290
     0
176
     1
 90
       50
176
     1
 40
0.0
176
     1
 40
1.0
176
     1
 90
        0
176
     1
 62
    18
420
        0
176
     1
 90
       50
176
     1
 90
        3
176
     1
 62
     5
420
      255
176
     1
290
     0
176
     1
 90
       50
176
     1
 90
       50
176
     1
 90
       50
176
     1
290
     0
176
     1
 90
       50
176
     1
 62
   256
176
     0
 40
1.0
176
     0
 90
        2
176
     1
  1
strokes_ogs.tif
176
     1
290
     0
176
     1
 40
1.0
176
     1
 40
1.0
176
     1
  0
VISUALSTYLE
  5
32
102
{ACAD_REACTORS
330
29
102
}
330
29
100
AcDbVisualStyle
  2
Conceptual
 70
     9
177
     3
291
     0
 70
    58
 90
        3
176
     1
 90
        2
176
     1
 90
        0
176
     1
 90
        0
176
     1
 40
0.6
176
     1
 40
30.0
176
     1
 62
     7
420
 16777215
176
     1
 90
        2
176
     1
 90
        2
176
     1
 62
     7
176
     1
 62
   257
176
     1
 90
        1
176
     1
 90
        1
176
     1
 40
179.0
176
     1
 90
        8
176
     1
 62
     7
176
     1
 40
1.0
176
     1
 90
        1
176
     1
 90
        6
176
     1
 90
        2
176
     1
 62
     7
176
     1
 90
        3
176
     1
 90
        0
176
     1
 90
        0
176
     1
290
     0
176
     1
 90
        1
176
     1
 40
0.0
176
     1
 90
        0
176
     1
290
     0
176
     1
290
     1
176
     1
290
     1
176
     1
290
     0
176
     1
290
     0
176
     1
290
     0
176
     1
290
     0
176
     1
290
     0
176
     1
290
     0
176
     1
 90
       50
176
     1
 40
0.0
176
     1
 40
1.0
176
     1
 90
        0
176
     1
 62
    18
420
        0
176
     1
 90
       50
176
     1
 90
        3
176
     1
 62
     5
420
      255
176
     1
290
     0
176
     1
 90
       50
176
     1
 90
       50
176
     1
 90
       50
176
     1
290
     0
176
     1
 90
       50
176
     1
 62
   256
176
     0
 40
1.0
176
     0
 90
        2
176
     1
  1
strokes_ogs.tif
176
     1
290
     0
176
     1
 40
1.0
176
     1
 40
1.0
176
     1
  0
VISUALSTYLE
  5
34
102
{ACAD_REACTORS
330
29
102
}
330
29
100
AcDbVisualStyle
  2
Dim
 70
    11
177
     3
291
     1
 70
    58
 90
        2
176
     1
 90
        2
176
     1
 90
        0
176
     1
 90
        0
176
     1
 40
0.6
176
     1
 40
30.0
176
     1
 62
     7
420
 16777215
176
     1
 90
        1
176
     1
 90
        4
176
     1
 62
     7
176
     1
 62
   257
176
     1
 90
        1
176
     1
 90
        1
176
     1
 40
1.0
176
     1
 90
        8
176
     1
 62
     7
176
     1
 40
1.0
176
     1
 90
        1
176
     1
 90
        6
176
     1
 90
        2
176
     1
 62
     7
176
     1
 90
        5
176
     1
 90
        0
176
     1
 90
        0
176
     1
290
     0
176
     1
 90
        1
176
     1
 40
-50.0
176
     1
 90
        0
176
     1
290
     0
176
     1
290
     1
176
     1
290
     1
176
     1
290
     0
176
     1
290
     0
176
     1
290
     0
176
     1
290
     0
176
     1
290
     0
176
     1
290
     0
176
     1
 90
       50
176
     1
 40
0.0
176
     1
 40
1.0
176
     1
 90
        0
176
     1
 62
    18
420
        0
176
     1
 90
       50
176
     1
 90
        3
176
     1
 62
     5
420
      255
176
     1
290
     0
176
     1
 90
       50
176
     1
 90
       50
176
     1
 90
       50
176
     1
290
     0
176
     1
 90
       50
176
     1
 62
   256
176
     0
 40
1.0
176
     0
 90
        2
176
     1
  1
strokes_ogs.tif
176
     1
290
     0
176
     1
 40
1.0
176
     1
 40
1.0
176
     1
  0
VISUALSTYLE
  5
41
102
{ACAD_REACTORS
330
29
102
}
330
29
100
AcDbVisualStyle
  2
EdgeColorOff
 70
    22
177
     3
291
     1
 70
    58
 90
        2
176
     0
 90
        2
176
     0
 90
        0
176
     0
 90
        0
176
     0
 40
0.6
176
     0
 40
30.0
176
     0
 62
     7
420
 16777215
176
     0
 90
        1
176
     0
 90
        4
176
     0
 62
     7
176
     0
 62
   257
176
     0
 90
        1
176
     0
 90
        1
176
     0
 40
1.0
176
     0
 90
        8
176
     2
 62
     7
176
     0
 40
1.0
176
     0
 90
        1
176
     0
 90
        6
176
     0
 90
        2
176
     0
 62
     7
176
     0
 90
        5
176
     0
 90
        0
176
     0
 90
        0
176
     0
290
     0
176
     0
 90
        1
176
     0
 40
0.0
176
     0
 90
        0
176
     0
290
     0
176
     0
290
     1
176
     0
290
     1
176
     0
290
     0
176
     0
290
     0
176
     0
290
     0
176
     0
290
     0
176
     0
290
     0
176
     0
290
     0
176
     0
 90
       50
176
     0
 40
0.0
176
     0
 40
1.0
176
     0
 90
        0
176
     0
 62
    18
420
        0
176
     0
 90
       50
176
     0
 90
        3
176
     0
 62
     5
420
      255
176
     0
290
     0
176
     0
 90
       50
176
     0
 90
       50
176
     0
 90
       50
176
     0
290
     0
176
     0
 90
       50
176
     0
 62
   256
176
     0
 40
1.0
176
     0
 90
        2
176
     0
  1
strokes_ogs.tif
176
     0
290
     0
176
     0
 40
1.0
176
     0
 40
1.0
176
     0
  0
VISUALSTYLE
  5
38
102
{ACAD_REACTORS
330
29
102
}
330
29
100
AcDbVisualStyle
  2
Facepattern
 70
    15
177
     3
291
     1
 70
    58
 90
        2
176
     1
 90
        2
176
     1
 90
        0
176
     1
 90
        0
176
     1
 40
0.6
176
     1
 40
30.0
176
     1
 62
     7
420
 16777215
176
     1
 90
        1
176
     1
 90
        4
176
     1
 62
     7
176
     1
 62
   257
176
     1
 90
        1
176
     1
 90
        1
176
     1
 40
1.0
176
     1
 90
        8
176
     1
 62
     7
176
     1
 40
1.0
176
     1
 90
        1
176
     1
 90
        6
176
     1
 90
        2
176
     1
 62
     7
176
     1
 90
        5
176
     1
 90
        0
176
     1
 90
        0
176
     1
290
     0
176
     1
 90
        1
176
     1
 40
0.0
176
     1
 90
        0
176
     1
290
     0
176
     1
290
     1
176
     1
290
     1
176
     1
290
     0
176
     1
290
     0
176
     1
290
     0
176
     1
290
     0
176
     1
290
     0
176
     1
290
     0
176
     1
 90
       50
176
     1
 40
0.0
176
     1
 40
1.0
176
     1
 90
        0
176
     1
 62
    18
420
        0
176
     1
 90
       50
176
     1
 90
        3
176
     1
 62
     5
420
      255
176
     1
290
     0
176
     1
 90
       50
176
     1
 90
       50
176
     1
 90
       50
176
     1
290
     0
176
     1
 90
       50
176
     1
 62
   256
176
     0
 40
1.0
176
     0
 90
        2
176
     1
  1
strokes_ogs.tif
176
     1
290
     0
176
     1
 40
1.0
176
     1
 40
1.0
176
     1
  0
VISUALSTYLE
  5
2A
102
{ACAD_REACTORS
330
29
102
}
330
29
100
AcDbVisualStyle
  2
Flat
 70
     0
177
     3
291
     1
 70
    58
 90
        2
176
     1
 90
        1
176
     1
 90
        1
176
     1
 90
        2
176
     1
 40
0.6
176
     1
 40
30.0
176
     1
 62
     7
420
 16777215
176
     1
 90
        0
176
     1
 90
        0
176
     1
 62
     7
176
     1
 62
   257
176
     1
 90
        1
176
     1
 90
        1
176
     1
 40
1.0
176
     1
 90
        8
176
     1
 62
     7
176
     1
 40
1.0
176
     1
 90
        1
176
     1
 90
        6
176
     1
 90
        2
176
     1
 62
     7
176
     1
 90
        5
176
     1
 90
        0
176
     1
 90
        0
176
     1
290
     0
176
     1
 90
       13
176
     1
 40
0.0
176
     1
 90
        0
176
     1
290
     0
176
     1
290
     1
176
     1
290
     1
176
     1
290
     0
176
     1
290
     0
176
     1
290
     0
176
     1
290
     0
176
     1
290
     0
176
     1
290
     0
176
     1
 90
       50
176
     1
 40
0.0
176
     1
 40
1.0
176
     1
 90
        0
176
     1
 62
    18
420
        0
176
     1
 90
       50
176
     1
 90
        3
176
     1
 62
     5
420
      255
176
     1
290
     0
176
     1
 90
       50
176
     1
 90
       50
176
     1
 90
       50
176
     1
290
     0
176
     1
 90
       50
176
     1
 62
   256
176
     0
 40
1.0
176
     0
 90
        2
176
     1
  1
strokes_ogs.tif
176
     1
290
     0
176
     1
 40
1.0
176
     1
 40
1.0
176
     1
  0
VISUALSTYLE
  5
2B
102
{ACAD_REACTORS
330
29
102
}
330
29
100
AcDbVisualStyle
  2
FlatWithEdges
 70
     1
177
     3
291
     1
 70
    58
 90
        2
176
     1
 90
        1
176
     1
 90
        1
176
     1
 90
        2
176
     1
 40
0.6
176
     1
 40
30.0
176
     1
 62
     7
420
 16777215
176
     1
 90
        1
176
     1
 90
        0
176
     1
 62
     7
176
     1
 62
   257
176
     1
 90
        1
176
     1
 90
        1
176
     1
 40
1.0
176
     1
 90
        0
176
     1
 62
   257
176
     1
 40
1.0
176
     1
 90
        1
176
     1
 90
        6
176
     1
 90
        2
176
     1
 62
     7
176
     1
 90
        5
176
     1
 90
        0
176
     1
 90
        0
176
     1
290
     0
176
     1
 90
       13
176
     1
 40
0.0
176
     1
 90
        0
176
     1
290
     0
176
     1
290
     1
176
     1
290
     1
176
     1
290
     0
176
     1
290
     0
176
     1
290
     0
176
     1
290
     0
176
     1
290
     0
176
     1
290
     0
176
     1
 90
       50
176
     1
 40
0.0
176
     1
 40
1.0
176
     1
 90
        0
176
     1
 62
    18
420
        0
176
     1
 90
       50
176
     1
 90
        3
176
     1
 62
     5
420
      255
176
     1
290
     0
176
     1
 90
       50
176
     1
 90
       50
176
     1
 90
       50
176
     1
290
     0
176
     1
 90
       50
176
     1
 62
   256
176
     0
 40
1.0
176
     0
 90
        2
176
     1
  1
strokes_ogs.tif
176
     1
290
     0
176
     1
 40
1.0
176
     1
 40
1.0
176
     1
  0
VISUALSTYLE
  5
2C
102
{ACAD_REACTORS
330
29
102
}
330
29
100
AcDbVisualStyle
  2
Gouraud
 70
     2
177
     3
291
     1
 70
    58
 90
        2
176
     1
 90
        2
176
     1
 90
        1
176
     1
 90
        2
176
     1
 40
0.6
176
     1
 40
30.0
176
     1
 62
     7
420
 16777215
176
     1
 90
        0
176
     1
 90
        0
176
     1
 62
     7
176
     1
 62
   257
176
     1
 90
        1
176
     1
 90
        1
176
     1
 40
1.0
176
     1
 90
        0
176
     1
 62
     7
176
     1
 40
1.0
176
     1
 90
        1
176
     1
 90
        6
176
     1
 90
        2
176
     1
 62
     7
176
     1
 90
        5
176
     1
 90
        0
176
     1
 90
        0
176
     1
290
     0
176
     1
 90
       13
176
     1
 40
0.0
176
     1
 90
        0
176
     1
290
     0
176
     1
290
     1
176
     1
290
     1
176
     1
290
     0
176
     1
290
     0
176
     1
290
     0
176
     1
290
     0
176
     1
290
     0
176
     1
290
     0
176
     1
 90
       50
176
     1
 40
0.0
176
     1
 40
1.0
176
     1
 90
        0
176
     1
 62
    18
420
        0
176
     1
 90
       50
176
     1
 90
        3
176
     1
 62
     5
420
      255
176
     1
290
     0
176
     1
 90
       50
176
     1
 90
       50
176
     1
 90
       50
176
     1
290
     0
176
     1
 90
       50
176
     1
 62
   256
176
     0
 40
1.0
176
     0
 90
        2
176
     1
  1
strokes_ogs.tif
176
     1
290
     0
176
     1
 40
1.0
176
     1
 40
1.0
176
     1
  0
VISUALSTYLE
  5
2D
102
{ACAD_REACTORS
330
29
102
}
330
29
100
AcDbVisualStyle
  2
GouraudWithEdges
 70
     3
177
     3
291
     1
 70
    58
 90
        2
176
     1
 90
        2
176
     1
 90
        1
176
     1
 90
        2
176
     1
 40
0.6
176
     1
 40
30.0
176
     1
 62
     7
420
 16777215
176
     1
 90
        1
176
     1
 90
        0
176
     1
 62
     7
176
     1
 62
   257
176
     1
 90
        1
176
     1
 90
        1
176
     1
 40
1.0
176
     1
 90
        0
176
     1
 62
   257
176
     1
 40
1.0
176
     1
 90
        1
176
     1
 90
        6
176
     1
 90
        2
176
     1
 62
     7
176
     1
 90
        5
176
     1
 90
        0
176
     1
 90
        0
176
     1
290
     0
176
     1
 90
       13
176
     1
 40
0.0
176
     1
 90
        0
176
     1
290
     0
176
     1
290
     1
176
     1
290
     1
176
     1
290
     0
176
     1
290
     0
176
     1
290
     0
176
     1
290
     0
176
     1
290
     0
176
     1
290
     0
176
     1
 90
       50
176
     1
 40
0.0
176
     1
 40
1.0
176
     1
 90
        0
176
     1
 62
    18
420
        0
176
     1
 90
       50
176
     1
 90
        3
176
     1
 62
     5
420
      255
176
     1
290
     0
176
     1
 90
       50
176
     1
 90
       50
176
     1
 90
       50
176
     1
290
     0
176
     1
 90
       50
176
     1
 62
   256
176
     0
 40
1.0
176
     0
 90
        2
176
     1
  1
strokes_ogs.tif
176
     1
290
     0
176
     1
 40
1.0
176
     1
 40
1.0
176
     1
  0
VISUALSTYLE
  5
31
102
{ACAD_REACTORS
330
29
102
}
330
29
100
AcDbVisualStyle
  2
Hidden
 70
     6
177
     3
291
     0
 70
    58
 90
        1
176
     1
 90
        2
176
     1
 90
        2
176
     1
 90
        0
176
     1
 40
0.6
176
     1
 40
30.0
176
     1
 62
     7
420
 16777215
176
     1
 90
        2
176
     1
 90
        2
176
     1
 62
     7
176
     1
 62
   257
176
     1
 90
        2
176
     1
 90
        1
176
     1
 40
40.0
176
     1
 90
        0
176
     1
 62
   257
176
     1
 40
1.0
176
     1
 90
        1
176
     1
 90
        6
176
     1
 90
        2
176
     1
 62
     7
176
     1
 90
        3
176
     1
 90
        0
176
     1
 90
        0
176
     1
290
     0
176
     1
 90
        1
176
     1
 40
0.0
176
     1
 90
        0
176
     1
290
     0
176
     1
290
     1
176
     1
290
     1
176
     1
290
     0
176
     1
290
     0
176
     1
290
     0
176
     1
290
     0
176
     1
290
     0
176
     1
290
     0
176
     1
 90
       50
176
     1
 40
0.0
176
     1
 40
1.0
176
     1
 90
        0
176
     1
 62
    18
420
        0
176
     1
 90
       50
176
     1
 90
        3
176
     1
 62
     5
420
      255
176
     1
290
     0
176
     1
 90
       50
176
     1
 90
       50
176
     1
 90
       50
176
     1
290
     0
176
     1
 90
       50
176
     1
 62
   256
176
     0
 40
1.0
176
     0
 90
        2
176
     1
  1
strokes_ogs.tif
176
     1
290
     0
176
     1
 40
1.0
176
     1
 40
1.0
176
     1
  0
VISUALSTYLE
  5
3F
102
{ACAD_REACTORS
330
29
102
}
330
29
100
AcDbVisualStyle
  2
JitterOff
 70
    20
177
     3
291
     1
 70
    58
 90
        2
176
     0
 90
        2
176
     0
 90
        0
176
     0
 90
        0
176
     0
 40
0.6
176
     0
 40
30.0
176
     0
 62
     7
420
 16777215
176
     0
 90
        1
176
     0
 90
        4
176
     0
 62
     7
176
     0
 62
   257
176
     0
 90
        1
176
     0
 90
        1
176
     0
 40
1.0
176
     0
 90
       10
176
     2
 62
     7
176
     0
 40
1.0
176
     0
 90
        1
176
     0
 90
        6
176
     0
 90
        2
176
     0
 62
     7
176
     0
 90
        5
176
     0
 90
        0
176
     0
 90
        0
176
     0
290
     0
176
     0
 90
        1
176
     0
 40
0.0
176
     0
 90
        0
176
     0
290
     0
176
     0
290
     1
176
     0
290
     1
176
     0
290
     0
176
     0
290
     0
176
     0
290
     0
176
     0
290
     0
176
     0
290
     0
176
     0
290
     0
176
     0
 90
       50
176
     0
 40
0.0
176
     0
 40
1.0
176
     0
 90
        0
176
     0
 62
    18
420
        0
176
     0
 90
       50
176
     0
 90
        3
176
     0
 62
     5
420
      255
176
     0
290
     0
176
     0
 90
       50
176
     0
 90
       50
176
     0
 90
       50
176
     0
290
     0
176
     0
 90
       50
176
     0
 62
   256
176
     0
 40
1.0
176
     0
 90
        2
176
     0
  1
strokes_ogs.tif
176
     0
290
     0
176
     0
 40
1.0
176
     0
 40
1.0
176
     0
  0
VISUALSTYLE
  5
37
102
{ACAD_REACTORS
330
29
102
}
330
29
100
AcDbVisualStyle
  2
Linepattern
 70
    14
177
     3
291
     1
 70
    58
 90
        2
176
     1
 90
        2
176
     1
 90
        0
176
     1
 90
        0
176
     1
 40
0.6
176
     1
 40
30.0
176
     1
 62
     7
420
 16777215
176
     1
 90
        1
176
     1
 90
        4
176
     1
 62
     7
176
     1
 62
   257
176
     1
 90
        7
176
     1
 90
        7
176
     1
 40
1.0
176
     1
 90
        8
176
     1
 62
     7
176
     1
 40
1.0
176
     1
 90
        1
176
     1
 90
        6
176
     1
 90
        2
176
     1
 62
     7
176
     1
 90
        5
176
     1
 90
        0
176
     1
 90
        0
176
     1
290
     0
176
     1
 90
        1
176
     1
 40
0.0
176
     1
 90
        0
176
     1
290
     0
176
     1
290
     1
176
     1
290
     1
176
     1
290
     0
176
     1
290
     0
176
     1
290
     0
176
     1
290
     0
176
     1
290
     0
176
     1
290
     0
176
     1
 90
       50
176
     1
 40
0.0
176
     1
 40
1.0
176
     1
 90
        0
176
     1
 62
    18
420
        0
176
     1
 90
       50
176
     1
 90
        3
176
     1
 62
     5
420
      255
176
     1
290
     0
176
     1
 90
       50
176
     1
 90
       50
176
     1
 90
       50
176
     1
290
     0
176
     1
 90
       50
176
     1
 62
   256
176
     0
 40
1.0
176
     0
 90
        2
176
     1
  1
strokes_ogs.tif
176
     1
290
     0
176
     1
 40
1.0
176
     1
 40
1.0
176
     1
  0
VISUALSTYLE
  5
40
102
{ACAD_REACTORS
330
29
102
}
330
29
100
AcDbVisualStyle
  2
OverhangOff
 70
    21
177
     3
291
     1
 70
    58
 90
        2
176
     0
 90
        2
176
     0
 90
        0
176
     0
 90
        0
176
     0
 40
0.6
176
     0
 40
30.0
176
     0
 62
     7
420
 16777215
176
     0
 90
        1
176
     0
 90
        4
176
     0
 62
     7
176
     0
 62
   257
176
     0
 90
        1
176
     0
 90
        1
176
     0
 40
1.0
176
     0
 90
        9
176
     2
 62
     7
176
     0
 40
1.0
176
     0
 90
        1
176
     0
 90
        6
176
     0
 90
        2
176
     0
 62
     7
176
     0
 90
        5
176
     0
 90
        0
176
     0
 90
        0
176
     0
290
     0
176
     0
 90
        1
176
     0
 40
0.0
176
     0
 90
        0
176
     0
290
     0
176
     0
290
     1
176
     0
290
     1
176
     0
290
     0
176
     0
290
     0
176
     0
290
     0
176
     0
290
     0
176
     0
290
     0
176
     0
290
     0
176
     0
 90
       50
176
     0
 40
0.0
176
     0
 40
1.0
176
     0
 90
        0
176
     0
 62
    18
420
        0
176
     0
 90
       50
176
     0
 90
        3
176
     0
 62
     5
420
      255
176
     0
290
     0
176
     0
 90
       50
176
     0
 90
       50
176
     0
 90
       50
176
     0
290
     0
176
     0
 90
       50
176
     0
 62
   256
176
     0
 40
1.0
176
     0
 90
        2
176
     0
  1
strokes_ogs.tif
176
     0
290
     0
176
     0
 40
1.0
176
     0
 40
1.0
176
     0
  0
VISUALSTYLE
  5
33
102
{ACAD_REACTORS
330
29
102
}
330
29
100
AcDbVisualStyle
  2
Realistic
 70
     8
177
     3
291
     0
 70
    58
 90
        2
176
     1
 90
        3
176
     1
 90
        0
176
     1
 90
        2
176
     1
 40
0.6
176
     1
 40
30.0
176
     1
 62
     7
420
 16777215
176
     1
 90
        0
176
     1
 90
        0
176
     1
 62
     7
176
     1
 62
   257
176
     1
 90
        1
176
     1
 90
        1
176
     1
 40
1.0
176
     1
 90
        8
176
     1
 62
   257
176
     1
 40
1.0
176
     1
 90
        1
176
     1
 90
        6
176
     1
 90
        2
176
     1
 62
     7
176
     1
 90
        3
176
     1
 90
        0
176
     1
 90
        0
176
     1
290
     0
176
     1
 90
       13
176
     1
 40
0.0
176
     1
 90
        0
176
     1
290
     0
176
     1
290
     1
176
     1
290
     1
176
     1
290
     0
176
     1
290
     0
176
     1
290
     0
176
     1
290
     0
176
     1
290
     0
176
     1
290
     0
176
     1
 90
       50
176
     1
 40
0.0
176
     1
 40
1.0
176
     1
 90
        0
176
     1
 62
    18
420
        0
176
     1
 90
       50
176
     1
 90
        3
176
     1
 62
     5
420
      255
176
     1
290
     0
176
     1
 90
       50
176
     1
 90
       50
176
     1
 90
       50
176
     1
290
     0
176
     1
 90
       50
176
     1
 62
   256
176
     0
 40
1.0
176
     0
 90
        2
176
     1
  1
strokes_ogs.tif
176
     1
290
     0
176
     1
 40
1.0
176
     1
 40
1.0
176
     1
  0
VISUALSTYLE
  5
3E
102
{ACAD_REACTORS
330
29
102
}
330
29
100
AcDbVisualStyle
  2
Shaded
 70
    27
177
     3
291
     0
 70
    58
 90
        2
176
     1
 90
        2
176
     1
 90
        1
176
     1
 90
        2
176
     1
 40
0.6
176
     1
 40
30.0
176
     1
 62
     7
420
 16777215
176
     1
 90
        0
176
     1
 90
        4
176
     1
 62
     7
176
     1
 62
   257
176
     1
 90
        1
176
     1
 90
        1
176
     1
 40
1.0
176
     1
 90
        8
176
     1
 62
   257
176
     1
 40
1.0
176
     1
 90
        1
176
     1
 90
        6
176
     1
 90
        2
176
     1
 62
     8
420
  7895160
176
     1
 90
        3
176
     1
 90
        0
176
     1
 90
        0
176
     1
290
     0
176
     1
 90
        5
176
     1
 40
0.0
176
     1
 90
        0
176
     1
290
     0
176
     1
290
     1
176
     1
290
     1
176
     1
290
     0
176
     1
290
     0
176
     1
290
     0
176
     1
290
     0
176
     1
290
     0
176
     1
290
     0
176
     1
 90
       50
176
     1
 40
0.0
176
     1
 40
1.0
176
     1
 90
        0
176
     1
 62
    18
420
        0
176
     1
 90
       50
176
     1
 90
        3
176
     1
 62
     5
420
      255
176
     1
290
     0
176
     1
 90
       50
176
     1
 90
       50
176
     1
 90
       50
176
     1
290
     0
176
     1
 90
       50
176
     1
 62
   256
176
     0
 40
1.0
176
     0
 90
        2
176
     1
  1
strokes_ogs.tif
176
     1
290
     0
176
     1
 40
1.0
176
     1
 40
1.0
176
     1
  0
VISUALSTYLE
  5
3D
102
{ACAD_REACTORS
330
29
102
}
330
29
100
AcDbVisualStyle
  2
Shaded with edges
 70
    26
177
     3
291
     0
 70
    58
 90
        2
176
     1
 90
        2
176
     1
 90
        1
176
     1
 90
        2
176
     1
 40
0.6
176
     1
 40
30.0
176
     1
 62
     7
420
 16777215
176
     1
 90
        1
176
     1
 90
       10
176
     1
 62
     7
176
     1
 62
   257
176
     1
 90
        2
176
     1
 90
        1
176
     1
 40
1.0
176
     1
 90
        8
176
     1
 62
   257
176
     1
 40
1.0
176
     1
 90
        1
176
     1
 90
        6
176
     1
 90
        2
176
     1
 62
     7
176
     1
 90
        3
176
     1
 90
        0
176
     1
 90
        0
176
     1
290
     0
176
     1
 90
        5
176
     1
 40
0.0
176
     1
 90
        0
176
     1
290
     0
176
     1
290
     1
176
     1
290
     1
176
     1
290
     0
176
     1
290
     0
176
     1
290
     0
176
     1
290
     0
176
     1
290
     0
176
     1
290
     0
176
     1
 90
       50
176
     1
 40
0.0
176
     1
 40
1.0
176
     1
 90
        0
176
     1
 62
    18
420
        0
176
     1
 90
       50
176
     1
 90
        3
176
     1
 62
     5
420
      255
176
     1
290
     0
176
     1
 90
       50
176
     1
 90
       50
176
     1
 90
       50
176
     1
290
     0
176
     1
 90
       50
176
     1
 62
   256
176
     0
 40
1.0
176
     0
 90
        2
176
     1
  1
strokes_ogs.tif
176
     1
290
     0
176
     1
 40
1.0
176
     1
 40
1.0
176
     1
  0
VISUALSTYLE
  5
3A
102
{ACAD_REACTORS
330
29
102
}
330
29
100
AcDbVisualStyle
  2
Shades of Gray
 70
    23
177
     3
291
     0
 70
    58
 90
        2
176
     1
 90
        2
176
     1
 90
        3
176
     1
 90
        0
176
     1
 40
0.6
176
     1
 40
30.0
176
     1
 62
     7
420
 16777215
176
     1
 90
        2
176
     1
 90
        2
176
     1
 62
     7
176
     1
 62
     7
176
     1
 90
        1
176
     1
 90
        1
176
     1
 40
40.0
176
     1
 90
        8
176
     1
 62
     7
176
     1
 40
1.0
176
     1
 90
        1
176
     1
 90
        6
176
     1
 90
        2
176
     1
 62
     7
176
     1
 90
        3
176
     1
 90
        0
176
     1
 90
        0
176
     1
290
     0
176
     1
 90
        1
176
     1
 40
0.0
176
     1
 90
        0
176
     1
290
     0
176
     1
290
     1
176
     1
290
     1
176
     1
290
     0
176
     1
290
     0
176
     1
290
     0
176
     1
290
     0
176
     1
290
     0
176
     1
290
     0
176
     1
 90
       50
176
     1
 40
0.0
176
     1
 40
1.0
176
     1
 90
        0
176
     1
 62
    18
420
        0
176
     1
 90
       50
176
     1
 90
        3
176
     1
 62
     5
420
      255
176
     1
290
     0
176
     1
 90
       50
176
     1
 90
       50
176
     1
 90
       50
176
     1
290
     0
176
     1
 90
       50
176
     1
 62
   256
176
     0
 40
1.0
176
     0
 90
        2
176
     1
  1
strokes_ogs.tif
176
     1
290
     0
176
     1
 40
1.0
176
     1
 40
1.0
176
     1
  0
VISUALSTYLE
  5
3B
102
{ACAD_REACTORS
330
29
102
}
330
29
100
AcDbVisualStyle
  2
Sketchy
 70
    24
177
     3
291
     0
 70
    58
 90
        1
176
     1
 90
        2
176
     1
 90
        2
176
     1
 90
        0
176
     1
 40
0.6
176
     1
 40
30.0
176
     1
 62
     7
420
 16777215
176
     1
 90
        2
176
     1
 90
        2
176
     1
 62
     7
176
     1
 62
     7
176
     1
 90
        1
176
     1
 90
        1
176
     1
 40
40.0
176
     1
 90
       11
176
     1
 62
     7
176
     1
 40
1.0
176
     1
 90
        1
176
     1
 90
        6
176
     1
 90
        2
176
     1
 62
     7
176
     1
 90
        6
176
     1
 90
        0
176
     1
 90
        0
176
     1
290
     0
176
     1
 90
        1
176
     1
 40
0.0
176
     1
 90
        0
176
     1
290
     0
176
     1
290
     1
176
     1
290
     1
176
     1
290
     0
176
     1
290
     0
176
     1
290
     0
176
     1
290
     0
176
     1
290
     0
176
     1
290
     0
176
     1
 90
       50
176
     1
 40
0.0
176
     1
 40
1.0
176
     1
 90
        0
176
     1
 62
    18
420
        0
176
     1
 90
       50
176
     1
 90
        3
176
     1
 62
     5
420
      255
176
     1
290
     0
176
     1
 90
       50
176
     1
 90
       50
176
     1
 90
       50
176
     1
290
     0
176
     1
 90
       50
176
     1
 62
   256
176
     0
 40
1.0
176
     0
 90
        2
176
     1
  1
strokes_ogs.tif
176
     1
290
     0
176
     1
 40
1.0
176
     1
 40
1.0
176
     1
  0
VISUALSTYLE
  5
36
102
{ACAD_REACTORS
330
29
102
}
330
29
100
AcDbVisualStyle
  2
Thicken
 70
    13
177
     3
291
     1
 70
    58
 90
        2
176
     1
 90
        2
176
     1
 90
        0
176
     1
 90
        0
176
     1
 40
0.6
176
     1
 40
30.0
176
     1
 62
     7
420
 16777215
176
     1
 90
        1
176
     1
 90
        4
176
     1
 62
     7
176
     1
 62
   257
176
     1
 90
        1
176
     1
 90
        1
176
     1
 40
1.0
176
     1
 90
       12
176
     1
 62
     7
176
     1
 40
1.0
176
     1
 90
        1
176
     1
 90
        6
176
     1
 90
        2
176
     1
 62
     7
176
     1
 90
        5
176
     1
 90
        0
176
     1
 90
        0
176
     1
290
     0
176
     1
 90
        1
176
     1
 40
0.0
176
     1
 90
        0
176
     1
290
     0
176
     1
290
     1
176
     1
290
     1
176
     1
290
     0
176
     1
290
     0
176
     1
290
     0
176
     1
290
     0
176
     1
290
     0
176
     1
290
     0
176
     1
 90
       50
176
     1
 40
0.0
176
     1
 40
1.0
176
     1
 90
        0
176
     1
 62
    18
420
        0
176
     1
 90
       50
176
     1
 90
        3
176
     1
 62
     5
420
      255
176
     1
290
     0
176
     1
 90
       50
176
     1
 90
       50
176
     1
 90
       50
176
     1
290
     0
176
     1
 90
       50
176
     1
 62
   256
176
     0
 40
1.0
176
     0
 90
        2
176
     1
  1
strokes_ogs.tif
176
     1
290
     0
176
     1
 40
1.0
176
     1
 40
1.0
176
     1
  0
VISUALSTYLE
  5
30
102
{ACAD_REACTORS
330
29
102
}
330
29
100
AcDbVisualStyle
  2
Wireframe
 70
     5
177
     3
291
     0
 70
    58
 90
        0
176
     1
 90
        2
176
     1
 90
        0
176
     1
 90
        0
176
     1
 40
0.6
176
     1
 40
30.0
176
     1
 62
     7
420
 16777215
176
     1
 90
        1
176
     1
 90
        4
176
     1
 62
     7
176
     1
 62
   257
176
     1
 90
        1
176
     1
 90
        1
176
     1
 40
1.0
176
     1
 90
        0
176
     1
 62
   257
176
     1
 40
1.0
176
     1
 90
        1
176
     1
 90
        6
176
     1
 90
        2
176
     1
 62
     7
176
     1
 90
        3
176
     1
 90
        0
176
     1
 90
        0
176
     1
290
     0
176
     1
 90
        1
176
     1
 40
0.0
176
     1
 90
        0
176
     1
290
     0
176
     1
290
     1
176
     1
290
     1
176
     1
290
     0
176
     1
290
     0
176
     1
290
     0
176
     1
290
     0
176
     1
290
     0
176
     1
290
     0
176
     1
 90
       50
176
     1
 40
0.0
176
     1
 40
1.0
176
     1
 90
        0
176
     1
 62
    18
420
        0
176
     1
 90
       50
176
     1
 90
        3
176
     1
 62
     5
420
      255
176
     1
290
     0
176
     1
 90
       50
176
     1
 90
       50
176
     1
 90
       50
176
     1
290
     0
176
     1
 90
       50
176
     1
 62
   256
176
     0
 40
1.0
176
     0
 90
        2
176
     1
  1
strokes_ogs.tif
176
     1
290
     0
176
     1
 40
1.0
176
     1
 40
1.0
176
     1
  0
VISUALSTYLE
  5
3C
102
{ACAD_REACTORS
330
29
102
}
330
29
100
AcDbVisualStyle
  2
X-Ray
 70
    25
177
     3
291
     0
 70
    58
 90
        2
176
     1
 90
        2
176
     1
 90
        1
176
     1
 90
        1
176
     1
 40
0.5
176
     1
 40
30.0
176
     1
 62
     7
420
 16777215
176
     1
 90
        1
176
     1
 90
        0
176
     1
 62
     7
176
     1
 62
   257
176
     1
 90
        1
176
     1
 90
        1
176
     1
 40
1.0
176
     1
 90
        8
176
     1
 62
     7
176
     1
 40
1.0
176
     1
 90
        1
176
     1
 90
        6
176
     1
 90
        2
176
     1
 62
     7
176
     1
 90
        3
176
     1
 90
        0
176
     1
 90
        0
176
     1
290
     0
176
     1
 90
       13
176
     1
 40
0.0
176
     1
 90
        0
176
     1
290
     0
176
     1
290
     1
176
     1
290
     1
176
     1
290
     0
176
     1
290
     0
176
     1
290
     0
176
     1
290
     0
176
     1
290
     0
176
     1
290
     0
176
     1
 90
       50
176
     1
 40
0.0
176
     1
 40
1.0
176
     1
 90
        0
176
     1
 62
    18
420
        0
176
     1
 90
       50
176
     1
 90
        3
176
     1
 62
     5
420
      255
176
     1
290
     0
176
     1
 90
       50
176
     1
 90
       50
176
     1
 90
       50
176
     1
290
     0
176
     1
 90
       50
176
     1
 62
   256
176
     0
 40
1.0
176
     0
 90
        2
176
     1
  1
strokes_ogs.tif
176
     1
290
     0
176
     1
 40
1.0
176
     1
 40
1.0
176
     1
  0
DICTIONARYVAR
  5
3D4
102
{ACAD_REACTORS
330
3CF
102
}
330
3CF
100
DictionaryVariables
280
     0
  1
1:1
  0
DICTIONARYVAR
  5
3D1
102
{ACAD_REACTORS
330
3CF
102
}
330
3CF
100
DictionaryVariables
280
     0
  1
STANDARD
  0
DICTIONARYVAR
  5
3D0
102
{ACAD_REACTORS
330
3CF
102
}
330
3CF
100
DictionaryVariables
280
     0
  1
STANDARD
  0
DICTIONARYVAR
  5
3D2
102
{ACAD_REACTORS
330
3CF
102
}
330
3CF
100
DictionaryVariables
280
     0
  1
Imperial24
  0
DICTIONARYVAR
  5
3D3
102
{ACAD_REACTORS
330
3CF
102
}
330
3CF
100
DictionaryVariables
280
     0
  1
Imperial24
  0
DICTIONARY
  5
1A
330
19
100
AcDbDictionary
280
     1
281
     1
  3
BUMPTILE
360
1C
  3
DIFFUSETILE
360
1B
  3
OPACITYTILE
360
1F
  3
REFLECTIONTILE
360
1E
  3
REFRACTIONTILE
360
20
  3
SPECULARTILE
360
1D
  0
DICTIONARY
  5
12
330
11
100
AcDbDictionary
280
     1
281
     1
  3
BUMPTILE
360
14
  3
DIFFUSETILE
360
13
  3
OPACITYTILE
360
17
  3
REFLECTIONTILE
360
16
  3
REFRACTIONTILE
360
18
  3
SPECULARTILE
360
15
  0
DICTIONARY
  5
22
330
21
100
AcDbDictionary
280
     1
281
     1
  3
BUMPTILE
360
24
  3
DIFFUSETILE
360
23
  3
OPACITYTILE
360
27
  3
REFLECTIONTILE
360
26
  3
REFRACTIONTILE
360
28
  3
SPECULARTILE
360
25
  0
DICTIONARY
  5
3D5
330
65
100
AcDbDictionary
280
     1
281
     1
  3
ACAD_ROUNDTRIP_2008_TABLESTYLE_CELLSTYLEMAP
360
3D6
  0
XRECORD
  5
1C
102
{ACAD_REACTORS
330
1A
102
}
330
1A
100
AcDbXrecord
280
     1
270
     1
271
     1
  0
XRECORD
  5
1B
102
{ACAD_REACTORS
330
1A
102
}
330
1A
100
AcDbXrecord
280
     1
270
     1
271
     1
  0
XRECORD
  5
1F
102
{ACAD_REACTORS
330
1A
102
}
330
1A
100
AcDbXrecord
280
     1
270
     1
271
     1
  0
XRECORD
  5
1E
102
{ACAD_REACTORS
330
1A
102
}
330
1A
100
AcDbXrecord
280
     1
270
     1
271
     1
  0
XRECORD
  5
20
102
{ACAD_REACTORS
330
1A
102
}
330
1A
100
AcDbXrecord
280
     1
270
     1
271
     1
  0
XRECORD
  5
1D
102
{ACAD_REACTORS
330
1A
102
}
330
1A
100
AcDbXrecord
280
     1
270
     1
271
     1
  0
XRECORD
  5
14
102
{ACAD_REACTORS
330
12
102
}
330
12
100
AcDbXrecord
280
     1
270
     1
271
     1
  0
XRECORD
  5
13
102
{ACAD_REACTORS
330
12
102
}
330
12
100
AcDbXrecord
280
     1
270
     1
271
     1
  0
XRECORD
  5
17
102
{ACAD_REACTORS
330
12
102
}
330
12
100
AcDbXrecord
280
     1
270
     1
271
     1
  0
XRECORD
  5
16
102
{ACAD_REACTORS
330
12
102
}
330
12
100
AcDbXrecord
280
     1
270
     1
271
     1
  0
XRECORD
  5
18
102
{ACAD_REACTORS
330
12
102
}
330
12
100
AcDbXrecord
280
     1
270
     1
271
     1
  0
XRECORD
  5
15
102
{ACAD_REACTORS
330
12
102
}
330
12
100
AcDbXrecord
280
     1
270
     1
271
     1
  0
XRECORD
  5
24
102
{ACAD_REACTORS
330
22
102
}
330
22
100
AcDbXrecord
280
     1
270
     1
271
     1
  0
XRECORD
  5
23
102
{ACAD_REACTORS
330
22
102
}
330
22
100
AcDbXrecord
280
     1
270
     1
271
     1
  0
XRECORD
  5
27
102
{ACAD_REACTORS
330
22
102
}
330
22
100
AcDbXrecord
280
     1
270
     1
271
     1
  0
XRECORD
  5
26
102
{ACAD_REACTORS
330
22
102
}
330
22
100
AcDbXrecord
280
     1
270
     1
271
     1
  0
XRECORD
  5
28
102
{ACAD_REACTORS
330
22
102
}
330
22
100
AcDbXrecord
280
     1
270
     1
271
     1
  0
XRECORD
  5
25
102
{ACAD_REACTORS
330
22
102
}
330
22
100
AcDbXrecord
280
     1
270
     1
271
     1
  0
CELLSTYLEMAP
  5
3D6
102
{ACAD_REACTORS
330
3D5
102
}
330
3D5
100
AcDbCellStyleMap
 90
        3
300
CELLSTYLE
  1
TABLEFORMAT_BEGIN
 90
        5
170
     1
 91
        0
 92
    32768
 62
   257
 93
        1
300
CONTENTFORMAT
  1
CONTENTFORMAT_BEGIN
 90
        0
 91
        0
 92
      512
 93
        0
300

 40
0.0
140
1.0
 94
        5
 62
     0
340
55
144
0.25
309
CONTENTFORMAT_END
171
     0
 94
        0
309
TABLEFORMAT_END
  1
CELLSTYLE_BEGIN
 90
        1
 91
        1
300
_TITLE
309
CELLSTYLE_END
300
CELLSTYLE
  1
TABLEFORMAT_BEGIN
 90
        5
170
     1
 91
        0
 92
        0
 62
   257
 93
        1
300
CONTENTFORMAT
  1
CONTENTFORMAT_BEGIN
 90
        0
 91
        0
 92
      512
 93
        0
300

 40
0.0
140
1.0
 94
        5
 62
     0
340
55
144
0.18
309
CONTENTFORMAT_END
171
     0
 94
        0
309
TABLEFORMAT_END
  1
CELLSTYLE_BEGIN
 90
        2
 91
        1
300
_HEADER
309
CELLSTYLE_END
300
CELLSTYLE
  1
TABLEFORMAT_BEGIN
 90
        5
170
     1
 91
        0
 92
        0
 62
   257
 93
        1
300
CONTENTFORMAT
  1
CONTENTFORMAT_BEGIN
 90
        0
 91
        0
 92
      512
 93
        0
300

 40
0.0
140
1.0
 94
        2
 62
     0
340
55
144
0.18
309
CONTENTFORMAT_END
171
     0
 94
        0
309
TABLEFORMAT_END
  1
CELLSTYLE_BEGIN
 90
        3
 91
        2
300
_DATA
309
CELLSTYLE_END
  0
ENDSEC
  0
EOF
