  0
SECTION
  2
HEADER
  9
$ACADVER
  1
AC1027
  9
$ACADMAINTVER
 70
     7
  9
$DWGCODEPAGE
  3
ANSI_1252
  9
$TITLE
  1
RoboBrrd 3D Printed Replacement Parts v1
  9
$AUTHOR
  1
RobotGrrl
  9
$CUSTOMPROPERTYTAG
  1
Manager
  9
$CUSTOMPROPERTY
  1

  9
$CUSTOMPROPERTYTAG
  1
Company
  9
$CUSTOMPROPERTY
  1
RoboBrrd.com
  9
$CUSTOMPROPERTYTAG
  1
Category
  9
$CUSTOMPROPERTY
  1

  9
$CUSTOMPROPERTYTAG
  1
Part Number
  9
$CUSTOMPROPERTY
  1
RoboBrrd Dimensions
  9
$CUSTOMPROPERTYTAG
  1
Description
  9
$CUSTOMPROPERTY
  1

  9
$CUSTOMPROPERTYTAG
  1
Project
  9
$CUSTOMPROPERTY
  1

  9
$CUSTOMPROPERTYTAG
  1
Designer
  9
$CUSTOMPROPERTY
  1
RobotGrrl
  9
$CUSTOMPROPERTYTAG
  1
Engineer
  9
$CUSTOMPROPERTY
  1

  9
$CUSTOMPROPERTYTAG
  1
Authority
  9
$CUSTOMPROPERTY
  1

  9
$CUSTOMPROPERTYTAG
  1
Cost Center
  9
$CUSTOMPROPERTY
  1

  9
$CUSTOMPROPERTYTAG
  1
Vendor
  9
$CUSTOMPROPERTY
  1

  9
$CUSTOMPROPERTYTAG
  1
User Status
  9
$CUSTOMPROPERTY
  1

  9
$CUSTOMPROPERTYTAG
  1
Design Status
  9
$CUSTOMPROPERTY
  1
WorkInProgress
  9
$CUSTOMPROPERTYTAG
  1
Checked by
  9
$CUSTOMPROPERTY
  1

  9
$CUSTOMPROPERTYTAG
  1
Engr Approved by
  9
$CUSTOMPROPERTY
  1

  9
$CUSTOMPROPERTYTAG
  1
Mfg Approved by
  9
$CUSTOMPROPERTY
  1

  9
$REQUIREDVERSIONS
160
                 0
  9
$INSBASE
 10
0.0
 20
0.0
 30
0.0
  9
$EXTMIN
 10
0.0
 20
0.0
 30
0.0
  9
$EXTMAX
 10
558.8
 20
431.7999999999999
 30
0.0
  9
$LIMMIN
 10
0.0
 20
0.0
  9
$LIMMAX
 10
558.8
 20
431.7999999999999
  9
$ORTHOMODE
 70
     0
  9
$REGENMODE
 70
     1
  9
$FILLMODE
 70
     1
  9
$QTEXTMODE
 70
     0
  9
$MIRRTEXT
 70
     0
  9
$LTSCALE
 40
1.0
  9
$ATTMODE
 70
     1
  9
$TEXTSIZE
 40
0.2
  9
$TRACEWID
 40
0.05
  9
$TEXTSTYLE
  7
Standard
  9
$CLAYER
  8
0
  9
$CELTYPE
  6
ByLayer
  9
$CECOLOR
 62
   256
  9
$CELTSCALE
 40
1.0
  9
$DISPSILH
 70
     0
  9
$DIMSCALE
 40
1.0
  9
$DIMASZ
 40
1.799999999999999
  9
$DIMEXO
 40
0.0625
  9
$DIMDLI
 40
0.38
  9
$DIMRND
 40
0.0
  9
$DIMDLE
 40
0.0
  9
$DIMEXE
 40
0.18
  9
$DIMTP
 40
0.0
  9
$DIMTM
 40
0.0
  9
$DIMTXT
 40
0.3048000037670135
  9
$DIMCEN
 40
0.09
  9
$DIMTSZ
 40
0.0
  9
$DIMTOL
 70
     0
  9
$DIMLIM
 70
     0
  9
$DIMTIH
 70
     1
  9
$DIMTOH
 70
     1
  9
$DIMSE1
 70
     0
  9
$DIMSE2
 70
     0
  9
$DIMTAD
 70
     0
  9
$DIMZIN
 70
     0
  9
$DIMBLK
  1

  9
$DIMASO
 70
     1
  9
$DIMSHO
 70
     1
  9
$DIMPOST
  1

  9
$DIMAPOST
  1

  9
$DIMALT
 70
     0
  9
$DIMALTD
 70
     2
  9
$DIMALTF
 40
25.4
  9
$DIMLFAC
 40
1.0
  9
$DIMTOFL
 70
     0
  9
$DIMTVP
 40
0.0
  9
$DIMTIX
 70
     0
  9
$DIMSOXD
 70
     0
  9
$DIMSAH
 70
     0
  9
$DIMBLK1
  1

  9
$DIMBLK2
  1

  9
$DIMSTYLE
  2
Standard
  9
$DIMCLRD
 70
     0
  9
$DIMCLRE
 70
     0
  9
$DIMCLRT
 70
     0
  9
$DIMTFAC
 40
1.0
  9
$DIMGAP
 40
0.09
  9
$DIMJUST
 70
     0
  9
$DIMSD1
 70
     0
  9
$DIMSD2
 70
     0
  9
$DIMTOLJ
 70
     1
  9
$DIMTZIN
 70
     0
  9
$DIMALTZ
 70
     0
  9
$DIMALTTZ
 70
     0
  9
$DIMUPT
 70
     0
  9
$DIMDEC
 70
     4
  9
$DIMTDEC
 70
     4
  9
$DIMALTU
 70
     2
  9
$DIMALTTD
 70
     2
  9
$DIMTXSTY
  7
Standard
  9
$DIMAUNIT
 70
     0
  9
$DIMADEC
 70
     0
  9
$DIMALTRND
 40
0.0
  9
$DIMAZIN
 70
     0
  9
$DIMDSEP
 70
    46
  9
$DIMATFIT
 70
     3
  9
$DIMFRAC
 70
     0
  9
$DIMLDRBLK
  1

  9
$DIMLUNIT
 70
     2
  9
$DIMLWD
 70
    -2
  9
$DIMLWE
 70
    -2
  9
$DIMTMOVE
 70
     0
  9
$DIMFXL
 40
1.0
  9
$DIMFXLON
 70
     0
  9
$DIMJOGANG
 40
0.7853981633974483
  9
$DIMTFILL
 70
     0
  9
$DIMTFILLCLR
 70
     0
  9
$DIMARCSYM
 70
     0
  9
$DIMLTYPE
  6

  9
$DIMLTEX1
  6

  9
$DIMLTEX2
  6

  9
$DIMTXTDIRECTION
 70
     0
  9
$LUNITS
 70
     2
  9
$LUPREC
 70
     4
  9
$SKETCHINC
 40
0.1
  9
$FILLETRAD
 40
0.0
  9
$AUNITS
 70
     0
  9
$AUPREC
 70
     0
  9
$MENU
  1
.
  9
$ELEVATION
 40
0.0
  9
$PELEVATION
 40
0.0
  9
$THICKNESS
 40
0.0
  9
$LIMCHECK
 70
     0
  9
$CHAMFERA
 40
0.0
  9
$CHAMFERB
 40
0.0
  9
$CHAMFERC
 40
0.0
  9
$CHAMFERD
 40
0.0
  9
$SKPOLY
 70
     0
  9
$TDCREATE
 40
2456353.451407998
  9
$TDUCREATE
 40
2456353.784741331
  9
$TDUPDATE
 40
2456353.451407998
  9
$TDUUPDATE
 40
2456353.784741331
  9
$TDINDWG
 40
0.0000087153
  9
$TDUSRTIMER
 40
0.0000087153
  9
$USRTIMER
 70
     1
  9
$ANGBASE
 50
0.0
  9
$ANGDIR
 70
     0
  9
$PDMODE
 70
     0
  9
$PDSIZE
 40
0.0
  9
$PLINEWID
 40
0.0
  9
$SPLFRAME
 70
     0
  9
$SPLINETYPE
 70
     6
  9
$SPLINESEGS
 70
     8
  9
$HANDSEED
  5
241
  9
$SURFTAB1
 70
     6
  9
$SURFTAB2
 70
     6
  9
$SURFTYPE
 70
     6
  9
$SURFU
 70
     6
  9
$SURFV
 70
     6
  9
$UCSBASE
  2

  9
$UCSNAME
  2

  9
$UCSORG
 10
0.0
 20
0.0
 30
0.0
  9
$UCSXDIR
 10
1.0
 20
0.0
 30
0.0
  9
$UCSYDIR
 10
0.0
 20
1.0
 30
0.0
  9
$UCSORTHOREF
  2

  9
$UCSORTHOVIEW
 70
     0
  9
$UCSORGTOP
 10
0.0
 20
0.0
 30
0.0
  9
$UCSORGBOTTOM
 10
0.0
 20
0.0
 30
0.0
  9
$UCSORGLEFT
 10
0.0
 20
0.0
 30
0.0
  9
$UCSORGRIGHT
 10
0.0
 20
0.0
 30
0.0
  9
$UCSORGFRONT
 10
0.0
 20
0.0
 30
0.0
  9
$UCSORGBACK
 10
0.0
 20
0.0
 30
0.0
  9
$PUCSBASE
  2

  9
$PUCSNAME
  2

  9
$PUCSORG
 10
0.0
 20
0.0
 30
0.0
  9
$PUCSXDIR
 10
1.0
 20
0.0
 30
0.0
  9
$PUCSYDIR
 10
0.0
 20
1.0
 30
0.0
  9
$PUCSORTHOREF
  2

  9
$PUCSORTHOVIEW
 70
     0
  9
$PUCSORGTOP
 10
0.0
 20
0.0
 30
0.0
  9
$PUCSORGBOTTOM
 10
0.0
 20
0.0
 30
0.0
  9
$PUCSORGLEFT
 10
0.0
 20
0.0
 30
0.0
  9
$PUCSORGRIGHT
 10
0.0
 20
0.0
 30
0.0
  9
$PUCSORGFRONT
 10
0.0
 20
0.0
 30
0.0
  9
$PUCSORGBACK
 10
0.0
 20
0.0
 30
0.0
  9
$USERI1
 70
     0
  9
$USERI2
 70
     0
  9
$USERI3
 70
     0
  9
$USERI4
 70
     0
  9
$USERI5
 70
     0
  9
$USERR1
 40
0.0
  9
$USERR2
 40
0.0
  9
$USERR3
 40
0.0
  9
$USERR4
 40
0.0
  9
$USERR5
 40
0.0
  9
$WORLDVIEW
 70
     1
  9
$SHADEDGE
 70
     3
  9
$SHADEDIF
 70
    70
  9
$TILEMODE
 70
     1
  9
$MAXACTVP
 70
    64
  9
$PINSBASE
 10
0.0
 20
0.0
 30
0.0
  9
$PLIMCHECK
 70
     0
  9
$PEXTMIN
 10
0.0
 20
0.0
 30
0.0
  9
$PEXTMAX
 10
558.8
 20
431.7999999999999
 30
0.0
  9
$PLIMMIN
 10
0.0
 20
0.0
  9
$PLIMMAX
 10
558.8
 20
431.7999999999999
  9
$UNITMODE
 70
     0
  9
$VISRETAIN
 70
     1
  9
$PLINEGEN
 70
     0
  9
$PSLTSCALE
 70
     1
  9
$TREEDEPTH
 70
  3020
  9
$CMLSTYLE
  2
Standard
  9
$CMLJUST
 70
     0
  9
$CMLSCALE
 40
1.0
  9
$PROXYGRAPHICS
 70
     1
  9
$MEASUREMENT
 70
     1
  9
$CELWEIGHT
370
    -1
  9
$ENDCAPS
280
     0
  9
$JOINSTYLE
280
     0
  9
$LWDISPLAY
290
     0
  9
$INSUNITS
 70
     4
  9
$HYPERLINKBASE
  1

  9
$STYLESHEET
  1

  9
$XEDIT
290
     1
  9
$CEPSNTYPE
380
     0
  9
$PSTYLEMODE
290
     1
  9
$FINGERPRINTGUID
  2
{6108D7BE-FB01-4AF3-A130-C60B3475F8A2}
  9
$VERSIONGUID
  2
{54DAB582-27A5-42CE-A261-33A0DFE7466A}
  9
$EXTNAMES
290
     1
  9
$PSVPSCALE
 40
0.0
  9
$OLESTARTUP
290
     0
  9
$SORTENTS
280
   127
  9
$INDEXCTL
280
     0
  9
$HIDETEXT
280
     1
  9
$XCLIPFRAME
280
     2
  9
$HALOGAP
280
     0
  9
$OBSCOLOR
 70
   257
  9
$OBSLTYPE
280
     0
  9
$INTERSECTIONDISPLAY
280
     0
  9
$INTERSECTIONCOLOR
 70
   257
  9
$DIMASSOC
280
     1
  9
$PROJECTNAME
  1

  9
$CAMERADISPLAY
290
     0
  9
$LENSLENGTH
 40
50.0
  9
$CAMERAHEIGHT
 40
0.0
  9
$STEPSPERSEC
 40
2.0
  9
$STEPSIZE
 40
6.0
  9
$3DDWFPREC
 40
2.0
  9
$PSOLWIDTH
 40
0.25
  9
$PSOLHEIGHT
 40
4.0
  9
$LOFTANG1
 40
1.570796326794896
  9
$LOFTANG2
 40
1.570796326794896
  9
$LOFTMAG1
 40
0.0
  9
$LOFTMAG2
 40
0.0
  9
$LOFTPARAM
 70
     7
  9
$LOFTNORMALS
280
     1
  9
$LATITUDE
 40
37.795
  9
$LONGITUDE
 40
-122.394
  9
$NORTHDIRECTION
 40
0.0
  9
$TIMEZONE
 70
 -8000
  9
$LIGHTGLYPHDISPLAY
280
     1
  9
$TILEMODELIGHTSYNCH
280
     1
  9
$CMATERIAL
347
11
  9
$SOLIDHIST
280
     0
  9
$SHOWHIST
280
     1
  9
$DWFFRAME
280
     2
  9
$DGNFRAME
280
     0
  9
$REALWORLDSCALE
290
     1
  9
$INTERFERECOLOR
 62
     1
  9
$INTERFEREOBJVS
345
33
  9
$INTERFEREVPVS
346
30
  9
$CSHADOW
280
     0
  9
$SHADOWPLANELOCATION
 40
0.0
  0
ENDSEC
  0
SECTION
  2
CLASSES
  0
CLASS
  1
ACDBDICTIONARYWDFLT
  2
AcDbDictionaryWithDefault
  3
ObjectDBX Classes
 90
        0
 91
        1
280
     0
281
     0
  0
CLASS
  1
MATERIAL
  2
AcDbMaterial
  3
ObjectDBX Classes
 90
     1153
 91
        3
280
     0
281
     0
  0
CLASS
  1
VISUALSTYLE
  2
AcDbVisualStyle
  3
ObjectDBX Classes
 90
     4095
 91
       24
280
     0
281
     0
  0
CLASS
  1
SCALE
  2
AcDbScale
  3
ObjectDBX Classes
 90
     1153
 91
       17
280
     0
281
     0
  0
CLASS
  1
TABLESTYLE
  2
AcDbTableStyle
  3
ObjectDBX Classes
 90
     4095
 91
        1
280
     0
281
     0
  0
CLASS
  1
MLEADERSTYLE
  2
AcDbMLeaderStyle
  3
ACDB_MLEADERSTYLE_CLASS
 90
     4095
 91
        1
280
     0
281
     0
  0
CLASS
  1
ACDBSECTIONVIEWSTYLE
  2
AcDbSectionViewStyle
  3
ObjectDBX Classes
 90
     1025
 91
        1
280
     0
281
     0
  0
CLASS
  1
ACDBDETAILVIEWSTYLE
  2
AcDbDetailViewStyle
  3
ObjectDBX Classes
 90
     1025
 91
        1
280
     0
281
     0
  0
CLASS
  1
DICTIONARYVAR
  2
AcDbDictionaryVar
  3
ObjectDBX Classes
 90
        0
 91
        5
280
     0
281
     0
  0
CLASS
  1
CELLSTYLEMAP
  2
AcDbCellStyleMap
  3
ObjectDBX Classes
 90
     1152
 91
        1
280
     0
281
     0
  0
ENDSEC
  0
SECTION
  2
TABLES
  0
TABLE
  2
VPORT
  5
8
330
0
100
AcDbSymbolTable
 70
     1
  0
VPORT
  5
57
330
8
100
AcDbSymbolTableRecord
100
AcDbViewportTableRecord
  2
*Active
 70
     0
 10
0.0
 20
0.0
 11
1.0
 21
1.0
 12
279.4
 22
215.9
 13
0.0
 23
0.0
 14
1.0
 24
1.0
 15
0.0
 25
0.0
 16
0.0
 26
0.0
 36
1.0
 17
0.0
 27
0.0
 37
0.0
 40
431.7999999999999
 41
1.294117647058823
 42
50.0
 43
0.0
 44
0.0
 50
0.0
 51
0.0
 71
     0
 72
   100
 73
     1
 74
     1
 75
     0
 76
     0
 77
     0
 78
     0
281
     0
 65
     1
110
0.0
120
0.0
130
0.0
111
1.0
121
0.0
131
0.0
112
0.0
122
1.0
132
0.0
 79
     0
146
0.0
 60
     3
 61
     5
292
     1
282
     1
141
0.0
142
0.0
 63
   250
421
  3355443
  0
ENDTAB
  0
TABLE
  2
LTYPE
  5
5
330
0
100
AcDbSymbolTable
 70
    59
  0
LTYPE
  5
5B
330
5
100
AcDbSymbolTableRecord
100
AcDbLinetypeTableRecord
  2
ByBlock
 70
     0
  3

 72
    65
 73
     0
 40
0.0
  0
LTYPE
  5
5C
330
5
100
AcDbSymbolTableRecord
100
AcDbLinetypeTableRecord
  2
ByLayer
 70
     0
  3

 72
    65
 73
     0
 40
0.0
  0
LTYPE
  5
5D
330
5
100
AcDbSymbolTableRecord
100
AcDbLinetypeTableRecord
  2
Continuous
 70
     0
  3
Solid line
 72
    65
 73
     0
 40
0.0
  0
LTYPE
  5
69
330
5
100
AcDbSymbolTableRecord
100
AcDbLinetypeTableRecord
  2
PHANTOM2
 70
     0
  3
Phantom (.5x) ___ _ _ ___ _ _ ___ _ _ ___ _ _
 72
    65
 73
     6
 40
1.25
 49
0.625
 74
     0
 49
-0.125
 74
     0
 49
0.125
 74
     0
 49
-0.125
 74
     0
 49
0.125
 74
     0
 49
-0.125
 74
     0
  0
LTYPE
  5
79
330
5
100
AcDbSymbolTableRecord
100
AcDbLinetypeTableRecord
  2
BY_STANDARD
 70
     0
  3
By Standard ____________    ____    ____   _
 72
    65
 73
     6
 40
1.240299999999999
 49
0.6614
 74
     0
 49
-0.0827
 74
     0
 49
0.1654
 74
     0
 49
-0.0827
 74
     0
 49
0.1654
 74
     0
 49
-0.0827
 74
     0
  0
LTYPE
  5
7A
330
5
100
AcDbSymbolTableRecord
100
AcDbLinetypeTableRecord
  2
CHAIN
 70
     0
  3
Chain ____ _ ____ _ ____ _ ____ _ ____ _ ____
 72
    65
 73
     4
 40
0.7087
 49
0.4724000000000001
 74
     0
 49
-0.0591
 74
     0
 49
0.1181
 74
     0
 49
-0.0591
 74
     0
  0
LTYPE
  5
7B
330
5
100
AcDbSymbolTableRecord
100
AcDbLinetypeTableRecord
  2
DASH_DOT
 70
     0
  3
Dash dot __ . __ . __ . __ . __ . __ . __ . __
 72
    65
 73
     4
 40
0.37
 49
0.24
 74
     0
 49
-0.06
 74
     0
 49
0.01
 74
     0
 49
-0.06
 74
     0
  0
LTYPE
  5
7C
330
5
100
AcDbSymbolTableRecord
100
AcDbLinetypeTableRecord
  2
DOUBLE_DASH_DOT
 70
     0
  3
Double-Dash Dot __ __ . __ __ . __ __ . __ _
 72
    65
 73
     6
 40
0.4398
 49
0.24
 74
     0
 49
-0.06
 74
     0
 49
0.0098
 74
     0
 49
-0.06
 74
     0
 49
0.01
 74
     0
 49
-0.06
 74
     0
  0
LTYPE
  5
7D
330
5
100
AcDbSymbolTableRecord
100
AcDbLinetypeTableRecord
  2
DASH_TRIPLE_DOT
 70
     0
  3
Dash Triple-Dot _ . . . _ . . . _ . . . _
 72
    65
 73
     8
 40
0.51
 49
0.24
 74
     0
 49
-0.06
 74
     0
 49
0.01
 74
     0
 49
-0.06
 74
     0
 49
0.01
 74
     0
 49
-0.06
 74
     0
 49
0.01
 74
     0
 49
-0.06
 74
     0
  0
LTYPE
  5
7E
330
5
100
AcDbSymbolTableRecord
100
AcDbLinetypeTableRecord
  2
DASHED
 70
     0
  3
Dashed __ __ __ __ __ __ __ __ __ __ __ __ __ _
 72
    65
 73
     2
 40
0.2067
 49
0.1654
 74
     0
 49
-0.0413
 74
     0
  0
LTYPE
  5
7F
330
5
100
AcDbSymbolTableRecord
100
AcDbLinetypeTableRecord
  2
DASH_DOUBLE_DOT
 70
     0
  3
Dash Double-Dot __ . . __ . . __ . . __ . .
 72
    65
 73
     6
 40
0.4398
 49
0.24
 74
     0
 49
-0.06
 74
     0
 49
0.0098
 74
     0
 49
-0.06
 74
     0
 49
0.01
 74
     0
 49
-0.06
 74
     0
  0
LTYPE
  5
80
330
5
100
AcDbSymbolTableRecord
100
AcDbLinetypeTableRecord
  2
DASHED_SPACE
 70
     0
  3
Dashed Space __ __ __ __ __ __ __ __ __ __ __ _
 72
    65
 73
     2
 40
0.2067
 49
0.1654
 74
     0
 49
-0.0413
 74
     0
  0
LTYPE
  5
81
330
5
100
AcDbSymbolTableRecord
100
AcDbLinetypeTableRecord
  2
DOTTED
 70
     0
  3
Dotted . . . . . . . . . . . . . . . . . . . . 
 72
    65
 73
     2
 40
0.0482
 49
0.0069
 74
     0
 49
-0.0413
 74
     0
  0
LTYPE
  5
82
330
5
100
AcDbSymbolTableRecord
100
AcDbLinetypeTableRecord
  2
DOUBLE_DASH_CHAIN
 70
     0
  3
Double-Dash Chain ______  __  __  ______  __  _
 72
    65
 73
     6
 40
1.240299999999999
 49
0.6614
 74
     0
 49
-0.0827
 74
     0
 49
0.1654
 74
     0
 49
-0.0827
 74
     0
 49
0.1654
 74
     0
 49
-0.0827
 74
     0
  0
LTYPE
  5
84
330
5
100
AcDbSymbolTableRecord
100
AcDbLinetypeTableRecord
  2
DOUBLE_DASH_DOUBLE_DOT
 70
     0
  3
Double-Dash Double-dot _ _ . . _ _ . . _
 72
    65
 73
     8
 40
0.7400000000000001
 49
0.24
 74
     0
 49
-0.06
 74
     0
 49
0.24
 74
     0
 49
-0.06
 74
     0
 49
0.01
 74
     0
 49
-0.06
 74
     0
 49
0.01
 74
     0
 49
-0.06
 74
     0
  0
LTYPE
  5
85
330
5
100
AcDbSymbolTableRecord
100
AcDbLinetypeTableRecord
  2
DOUBLE_DASH_TRIPLE_DOT
 70
     0
  3
Double Dash Triple Dot __ __ . . . __ __ . .
 72
    65
 73
    10
 40
0.8100000000000001
 49
0.24
 74
     0
 49
-0.06
 74
     0
 49
0.24
 74
     0
 49
-0.06
 74
     0
 49
0.01
 74
     0
 49
-0.06
 74
     0
 49
0.01
 74
     0
 49
-0.06
 74
     0
 49
0.01
 74
     0
 49
-0.06
 74
     0
  0
LTYPE
  5
86
330
5
100
AcDbSymbolTableRecord
100
AcDbLinetypeTableRecord
  2
LONG_DASH_DOTTED
 70
     0
  3
Long Dash Dotted ____ . ____ . ____ . ____ . _
 72
    65
 73
     4
 40
0.3543
 49
0.2362
 74
     0
 49
-0.0295
 74
     0
 49
0.0591
 74
     0
 49
-0.0295
 74
     0
  0
LTYPE
  5
87
330
5
100
AcDbSymbolTableRecord
100
AcDbLinetypeTableRecord
  2
LONG_DASH_DOUBLE_DOT
 70
     0
  3
Long Dash Double Dot ________  .  .  ________  
 72
    65
 73
     6
 40
0.6799999999999999
 49
0.48
 74
     0
 49
-0.06
 74
     0
 49
0.01
 74
     0
 49
-0.06
 74
     0
 49
0.01
 74
     0
 49
-0.06
 74
     0
  0
LTYPE
  5
88
330
5
100
AcDbSymbolTableRecord
100
AcDbLinetypeTableRecord
  2
LONG_DASH_TRIPLE_DOT
 70
     0
  3
Long Dash Triple Dot ____ ... ____ ... ____
 72
    65
 73
     8
 40
0.3689
 49
0.2362
 74
     0
 49
-0.0295
 74
     0
 49
0.0049
 74
     0
 49
-0.0295
 74
     0
 49
0.0049
 74
     0
 49
-0.0295
 74
     0
 49
0.0049
 74
     0
 49
-0.0295
 74
     0
  0
LTYPE
  5
89
330
5
100
AcDbSymbolTableRecord
100
AcDbLinetypeTableRecord
  2
BORDER
 70
     0
  3
Border __ __ . __ __ . __ __ . __ __ . __ __ .
 72
    65
 73
     6
 40
1.75
 49
0.5
 74
     0
 49
-0.25
 74
     0
 49
0.5
 74
     0
 49
-0.25
 74
     0
 49
0.0
 74
     0
 49
-0.25
 74
     0
  0
LTYPE
  5
8A
330
5
100
AcDbSymbolTableRecord
100
AcDbLinetypeTableRecord
  2
BORDER2
 70
     0
  3
Border (.5x) __.__.__.__.__.__.__.__.__.__.__.
 72
    65
 73
     6
 40
0.875
 49
0.25
 74
     0
 49
-0.125
 74
     0
 49
0.25
 74
     0
 49
-0.125
 74
     0
 49
0.0
 74
     0
 49
-0.125
 74
     0
  0
LTYPE
  5
8B
330
5
100
AcDbSymbolTableRecord
100
AcDbLinetypeTableRecord
  2
BORDERX2
 70
     0
  3
Border (2x) ____  ____  .  ____  ____  .  ___
 72
    65
 73
     6
 40
3.5
 49
1.0
 74
     0
 49
-0.5
 74
     0
 49
1.0
 74
     0
 49
-0.5
 74
     0
 49
0.0
 74
     0
 49
-0.5
 74
     0
  0
LTYPE
  5
8C
330
5
100
AcDbSymbolTableRecord
100
AcDbLinetypeTableRecord
  2
CENTER
 70
     0
  3
Center ____ _ ____ _ ____ _ ____ _ ____ _ ____
 72
    65
 73
     4
 40
2.0
 49
1.25
 74
     0
 49
-0.25
 74
     0
 49
0.25
 74
     0
 49
-0.25
 74
     0
  0
LTYPE
  5
8D
330
5
100
AcDbSymbolTableRecord
100
AcDbLinetypeTableRecord
  2
CENTER2
 70
     0
  3
Center (.5x) ___ _ ___ _ ___ _ ___ _ ___ _ ___
 72
    65
 73
     4
 40
1.125
 49
0.75
 74
     0
 49
-0.125
 74
     0
 49
0.125
 74
     0
 49
-0.125
 74
     0
  0
LTYPE
  5
8E
330
5
100
AcDbSymbolTableRecord
100
AcDbLinetypeTableRecord
  2
CENTERX2
 70
     0
  3
Center (2x) ________  __  ________  __  _____
 72
    65
 73
     4
 40
4.0
 49
2.5
 74
     0
 49
-0.5
 74
     0
 49
0.5
 74
     0
 49
-0.5
 74
     0
  0
LTYPE
  5
8F
330
5
100
AcDbSymbolTableRecord
100
AcDbLinetypeTableRecord
  2
DASHDOT2
 70
     0
  3
Dash dot (.5x) _._._._._._._._._._._._._._._.
 72
    65
 73
     4
 40
0.5
 49
0.25
 74
     0
 49
-0.125
 74
     0
 49
0.0
 74
     0
 49
-0.125
 74
     0
  0
LTYPE
  5
90
330
5
100
AcDbSymbolTableRecord
100
AcDbLinetypeTableRecord
  2
DASHDOTX2
 70
     0
  3
Dash dot (2x) ____  .  ____  .  ____  .  ___
 72
    65
 73
     4
 40
2.0
 49
1.0
 74
     0
 49
-0.5
 74
     0
 49
0.0
 74
     0
 49
-0.5
 74
     0
  0
LTYPE
  5
92
330
5
100
AcDbSymbolTableRecord
100
AcDbLinetypeTableRecord
  2
DASHED2
 70
     0
  3
Dashed (.5x) _ _ _ _ _ _ _ _ _ _ _ _ _ _ _ _ _
 72
    65
 73
     2
 40
0.375
 49
0.25
 74
     0
 49
-0.125
 74
     0
  0
LTYPE
  5
93
330
5
100
AcDbSymbolTableRecord
100
AcDbLinetypeTableRecord
  2
DASHEDX2
 70
     0
  3
Dashed (2x) ____  ____  ____  ____  ____  ___
 72
    65
 73
     2
 40
1.5
 49
1.0
 74
     0
 49
-0.5
 74
     0
  0
LTYPE
  5
94
330
5
100
AcDbSymbolTableRecord
100
AcDbLinetypeTableRecord
  2
DIVIDE
 70
     0
  3
Divide ____ . . ____ . . ____ . . ____ . . ____
 72
    65
 73
     6
 40
1.25
 49
0.5
 74
     0
 49
-0.25
 74
     0
 49
0.0
 74
     0
 49
-0.25
 74
     0
 49
0.0
 74
     0
 49
-0.25
 74
     0
  0
LTYPE
  5
95
330
5
100
AcDbSymbolTableRecord
100
AcDbLinetypeTableRecord
  2
DIVIDE2
 70
     0
  3
Divide (.5x) __..__..__..__..__..__..__..__.._
 72
    65
 73
     6
 40
0.625
 49
0.25
 74
     0
 49
-0.125
 74
     0
 49
0.0
 74
     0
 49
-0.125
 74
     0
 49
0.0
 74
     0
 49
-0.125
 74
     0
  0
LTYPE
  5
96
330
5
100
AcDbSymbolTableRecord
100
AcDbLinetypeTableRecord
  2
DIVIDEX2
 70
     0
  3
Divide (2x) ________  .  .  ________  .  .  _
 72
    65
 73
     6
 40
2.5
 49
1.0
 74
     0
 49
-0.5
 74
     0
 49
0.0
 74
     0
 49
-0.5
 74
     0
 49
0.0
 74
     0
 49
-0.5
 74
     0
  0
LTYPE
  5
97
330
5
100
AcDbSymbolTableRecord
100
AcDbLinetypeTableRecord
  2
DOT
 70
     0
  3
Dot . . . . . . . . . . . . . . . . . . . . . .
 72
    65
 73
     2
 40
0.25
 49
0.0
 74
     0
 49
-0.25
 74
     0
  0
LTYPE
  5
98
330
5
100
AcDbSymbolTableRecord
100
AcDbLinetypeTableRecord
  2
DOT2
 70
     0
  3
Dot (.5x) .....................................
 72
    65
 73
     2
 40
0.125
 49
0.0
 74
     0
 49
-0.125
 74
     0
  0
LTYPE
  5
99
330
5
100
AcDbSymbolTableRecord
100
AcDbLinetypeTableRecord
  2
DOTX2
 70
     0
  3
Dot (2x) .  .  .  .  .  .  .  .  .  .  .  .  . 
 72
    65
 73
     2
 40
0.5
 49
0.0
 74
     0
 49
-0.5
 74
     0
  0
LTYPE
  5
9A
330
5
100
AcDbSymbolTableRecord
100
AcDbLinetypeTableRecord
  2
HIDDEN
 70
     0
  3
Hidden __ __ __ __ __ __ __ __ __ __ __ __ __ _
 72
    65
 73
     2
 40
0.375
 49
0.25
 74
     0
 49
-0.125
 74
     0
  0
LTYPE
  5
9B
330
5
100
AcDbSymbolTableRecord
100
AcDbLinetypeTableRecord
  2
HIDDEN2
 70
     0
  3
Hidden (.5x) _ _ _ _ _ _ _ _ _ _ _ _ _ _ _ _ _
 72
    65
 73
     2
 40
0.1875
 49
0.125
 74
     0
 49
-0.0625
 74
     0
  0
LTYPE
  5
9C
330
5
100
AcDbSymbolTableRecord
100
AcDbLinetypeTableRecord
  2
HIDDENX2
 70
     0
  3
Hidden (2x) ____ ____ ____ ____ ____ ____ ____
 72
    65
 73
     2
 40
0.75
 49
0.5
 74
     0
 49
-0.25
 74
     0
  0
LTYPE
  5
9D
330
5
100
AcDbSymbolTableRecord
100
AcDbLinetypeTableRecord
  2
PHANTOM
 70
     0
  3
Phantom ______  __  __  ______  __  __  ______
 72
    65
 73
     6
 40
2.5
 49
1.25
 74
     0
 49
-0.25
 74
     0
 49
0.25
 74
     0
 49
-0.25
 74
     0
 49
0.25
 74
     0
 49
-0.25
 74
     0
  0
LTYPE
  5
9F
330
5
100
AcDbSymbolTableRecord
100
AcDbLinetypeTableRecord
  2
PHANTOMX2
 70
     0
  3
Phantom (2x) ____________    ____    ____   _
 72
    65
 73
     6
 40
5.0
 49
2.5
 74
     0
 49
-0.5
 74
     0
 49
0.5
 74
     0
 49
-0.5
 74
     0
 49
0.5
 74
     0
 49
-0.5
 74
     0
  0
LTYPE
  5
A0
330
5
100
AcDbSymbolTableRecord
100
AcDbLinetypeTableRecord
  2
ACAD_ISO02W100
 70
     0
  3
ISO dash __ __ __ __ __ __ __ __ __ __ __ __ __
 72
    65
 73
     2
 40
0.59
 49
0.47
 74
     0
 49
-0.12
 74
     0
  0
LTYPE
  5
A1
330
5
100
AcDbSymbolTableRecord
100
AcDbLinetypeTableRecord
  2
ACAD_ISO03W100
 70
     0
  3
ISO dash space __    __    __    __    __    __
 72
    65
 73
     2
 40
1.179999999999999
 49
0.47
 74
     0
 49
-0.71
 74
     0
  0
LTYPE
  5
A2
330
5
100
AcDbSymbolTableRecord
100
AcDbLinetypeTableRecord
  2
ACAD_ISO04W100
 70
     0
  3
ISO long-dash dot ____ . ____ . ____ . ____ . _
 72
    65
 73
     4
 40
1.179999999999999
 49
0.9399999999999998
 74
     0
 49
-0.12
 74
     0
 49
0.0
 74
     0
 49
-0.12
 74
     0
  0
LTYPE
  5
A3
330
5
100
AcDbSymbolTableRecord
100
AcDbLinetypeTableRecord
  2
ACAD_ISO05W100
 70
     0
  3
ISO long-dash double-dot ____ .. ____ .. ____ .
 72
    65
 73
     6
 40
1.299999999999999
 49
0.9399999999999998
 74
     0
 49
-0.12
 74
     0
 49
0.0
 74
     0
 49
-0.12
 74
     0
 49
0.0
 74
     0
 49
-0.12
 74
     0
  0
LTYPE
  5
A4
330
5
100
AcDbSymbolTableRecord
100
AcDbLinetypeTableRecord
  2
ACAD_ISO06W100
 70
     0
  3
ISO long-dash triple-dot ____ ... ____ ... ____
 72
    65
 73
     8
 40
1.419999999999999
 49
0.9399999999999998
 74
     0
 49
-0.12
 74
     0
 49
0.0
 74
     0
 49
-0.12
 74
     0
 49
0.0
 74
     0
 49
-0.12
 74
     0
 49
0.0
 74
     0
 49
-0.12
 74
     0
  0
LTYPE
  5
A5
330
5
100
AcDbSymbolTableRecord
100
AcDbLinetypeTableRecord
  2
ACAD_ISO07W100
 70
     0
  3
ISO dot . . . . . . . . . . . . . . . . . . . .
 72
    65
 73
     2
 40
0.12
 49
0.0
 74
     0
 49
-0.12
 74
     0
  0
LTYPE
  5
A6
330
5
100
AcDbSymbolTableRecord
100
AcDbLinetypeTableRecord
  2
ACAD_ISO08W100
 70
     0
  3
ISO long-dash short-dash ____ __ ____ __ ____ _
 72
    65
 73
     4
 40
0.95
 49
0.47
 74
     0
 49
-0.12
 74
     0
 49
0.24
 74
     0
 49
-0.12
 74
     0
  0
LTYPE
  5
A7
330
5
100
AcDbSymbolTableRecord
100
AcDbLinetypeTableRecord
  2
ACAD_ISO09W100
 70
     0
  3
ISO long-dash double-short-dash ____ __ __ ____
 72
    65
 73
     6
 40
1.31
 49
0.47
 74
     0
 49
-0.12
 74
     0
 49
0.24
 74
     0
 49
-0.12
 74
     0
 49
0.24
 74
     0
 49
-0.12
 74
     0
  0
LTYPE
  5
A8
330
5
100
AcDbSymbolTableRecord
100
AcDbLinetypeTableRecord
  2
ACAD_ISO10W100
 70
     0
  3
ISO dash dot __ . __ . __ . __ . __ . __ . __ .
 72
    65
 73
     4
 40
0.71
 49
0.47
 74
     0
 49
-0.12
 74
     0
 49
0.0
 74
     0
 49
-0.12
 74
     0
  0
LTYPE
  5
A9
330
5
100
AcDbSymbolTableRecord
100
AcDbLinetypeTableRecord
  2
ACAD_ISO11W100
 70
     0
  3
ISO double-dash dot __ __ . __ __ . __ __ . __ 
 72
    65
 73
     6
 40
1.299999999999999
 49
0.47
 74
     0
 49
-0.12
 74
     0
 49
0.47
 74
     0
 49
-0.12
 74
     0
 49
0.0
 74
     0
 49
-0.12
 74
     0
  0
LTYPE
  5
AA
330
5
100
AcDbSymbolTableRecord
100
AcDbLinetypeTableRecord
  2
ACAD_ISO12W100
 70
     0
  3
ISO dash double-dot __ . . __ . . __ . . __ . .
 72
    65
 73
     6
 40
0.8299999999999998
 49
0.47
 74
     0
 49
-0.12
 74
     0
 49
0.0
 74
     0
 49
-0.12
 74
     0
 49
0.0
 74
     0
 49
-0.12
 74
     0
  0
LTYPE
  5
AB
330
5
100
AcDbSymbolTableRecord
100
AcDbLinetypeTableRecord
  2
ACAD_ISO13W100
 70
     0
  3
ISO double-dash double-dot __ __ . . __ __ . . 
 72
    65
 73
     8
 40
1.419999999999999
 49
0.47
 74
     0
 49
-0.12
 74
     0
 49
0.47
 74
     0
 49
-0.12
 74
     0
 49
0.0
 74
     0
 49
-0.12
 74
     0
 49
0.0
 74
     0
 49
-0.12
 74
     0
  0
LTYPE
  5
AC
330
5
100
AcDbSymbolTableRecord
100
AcDbLinetypeTableRecord
  2
ACAD_ISO14W100
 70
     0
  3
ISO dash triple-dot __ . . . __ . . . __ . . . 
 72
    65
 73
     8
 40
0.95
 49
0.47
 74
     0
 49
-0.12
 74
     0
 49
0.0
 74
     0
 49
-0.12
 74
     0
 49
0.0
 74
     0
 49
-0.12
 74
     0
 49
0.0
 74
     0
 49
-0.12
 74
     0
  0
LTYPE
  5
AD
330
5
100
AcDbSymbolTableRecord
100
AcDbLinetypeTableRecord
  2
ACAD_ISO15W100
 70
     0
  3
ISO double-dash triple-dot __ __ . . . __ __ . 
 72
    65
 73
    10
 40
1.539999999999999
 49
0.47
 74
     0
 49
-0.12
 74
     0
 49
0.47
 74
     0
 49
-0.12
 74
     0
 49
0.0
 74
     0
 49
-0.12
 74
     0
 49
0.0
 74
     0
 49
-0.12
 74
     0
 49
0.0
 74
     0
 49
-0.12
 74
     0
  0
LTYPE
  5
B0
330
5
100
AcDbSymbolTableRecord
100
AcDbLinetypeTableRecord
  2
FENCELINE1
 70
     0
  3
Fenceline circle ----0-----0----0-----0----0---
 72
    65
 73
     4
 40
1.45
 49
0.25
 74
     0
 49
-0.1
 74
     4
 75
   133
340
AF
 46
0.1
 50
0.0
 44
-0.1
 45
0.0
 49
-0.1
 74
     0
 49
1.0
 74
     0
  0
LTYPE
  5
B1
330
5
100
AcDbSymbolTableRecord
100
AcDbLinetypeTableRecord
  2
FENCELINE2
 70
     0
  3
Fenceline square ----[]-----[]----[]-----[]----
 72
    65
 73
     4
 40
1.45
 49
0.25
 74
     0
 49
-0.1
 74
     4
 75
   132
340
AF
 46
0.1
 50
0.0
 44
-0.1
 45
0.0
 49
-0.1
 74
     0
 49
1.0
 74
     0
  0
LTYPE
  5
B2
330
5
100
AcDbSymbolTableRecord
100
AcDbLinetypeTableRecord
  2
TRACKS
 70
     0
  3
Tracks -|-|-|-|-|-|-|-|-|-|-|-|-|-|-|-|-|-|-|-|
 72
    65
 73
     2
 40
0.3
 49
0.15
 74
     4
 75
   130
340
AF
 46
0.25
 50
0.0
 44
0.0
 45
0.0
 49
0.15
 74
     0
  0
LTYPE
  5
B3
330
5
100
AcDbSymbolTableRecord
100
AcDbLinetypeTableRecord
  2
BATTING
 70
     0
  3
Batting SSSSSSSSSSSSSSSSSSSSSSSSSSSSSSSSSSSSSSS
 72
    65
 73
     4
 40
0.4001000000000001
 49
0.0001
 74
     0
 49
-0.1
 74
     4
 75
   134
340
AF
 46
0.1
 50
0.0
 44
-0.1
 45
0.0
 49
-0.2
 74
     4
 75
   134
340
AF
 46
0.1
 50
180.0
 44
0.1
 45
0.0
 49
-0.1
 74
     0
  0
LTYPE
  5
B4
330
5
100
AcDbSymbolTableRecord
100
AcDbLinetypeTableRecord
  2
HOT_WATER_SUPPLY
 70
     0
  3
Hot water supply ---- HW ---- HW ---- HW ----
 72
    65
 73
     3
 40
0.9
 49
0.5
 74
     0
 49
-0.2
 74
     2
 75
     0
340
55
 46
0.1
 50
0.0
 44
-0.1
 45
-0.05
  9
HW
 49
-0.2
 74
     0
  0
LTYPE
  5
B5
330
5
100
AcDbSymbolTableRecord
100
AcDbLinetypeTableRecord
  2
GAS_LINE
 70
     0
  3
Gas line ----GAS----GAS----GAS----GAS----GAS---
 72
    65
 73
     3
 40
0.95
 49
0.5
 74
     0
 49
-0.2
 74
     2
 75
     0
340
55
 46
0.1
 50
0.0
 44
-0.1
 45
-0.05
  9
GAS
 49
-0.25
 74
     0
  0
LTYPE
  5
B6
330
5
100
AcDbSymbolTableRecord
100
AcDbLinetypeTableRecord
  2
ZIGZAG
 70
     0
  3
Zig zag /\/\/\/\/\/\/\/\/\/\/\/\/\/\/\/\/\/\/\/
 72
    65
 73
     4
 40
0.8001000000000001
 49
0.0001
 74
     0
 49
-0.2
 74
     4
 75
   131
340
AF
 46
0.2
 50
0.0
 44
-0.2
 45
0.0
 49
-0.4
 74
     4
 75
   131
340
AF
 46
0.2
 50
180.0
 44
0.2
 45
0.0
 49
-0.2
 74
     0
  0
ENDTAB
  0
TABLE
  2
LAYER
  5
2
330
0
100
AcDbSymbolTable
 70
    26
  0
LAYER
  5
54
330
2
100
AcDbSymbolTableRecord
100
AcDbLayerTableRecord
  2
0
 70
     0
 62
     7
  6
Continuous
370
    -3
390
F
347
21
348
0
  0
LAYER
  5
C1
330
2
100
AcDbSymbolTableRecord
100
AcDbLayerTableRecord
  2
Hidden (ANSI)
 70
     0
 62
     7
  6
DASHED
370
    35
390
F
347
21
348
0
  0
LAYER
  5
CB
330
2
100
AcDbSymbolTableRecord
100
AcDbLayerTableRecord
  2
Visible (ANSI)
 70
     0
 62
     7
  6
Continuous
370
    50
390
F
347
21
348
0
  0
ENDTAB
  0
TABLE
  2
STYLE
  5
3
330
0
100
AcDbSymbolTable
 70
     3
  0
STYLE
  5
55
330
3
100
AcDbSymbolTableRecord
100
AcDbTextStyleTableRecord
  2
Standard
 70
     0
 40
0.0
 41
1.0
 50
0.0
 71
     0
 42
0.2
  3
tahoma.ttf
  4

1001
ACAD
1000
Tahoma
1071
      256
  0
STYLE
  5
5A
330
3
100
AcDbSymbolTableRecord
100
AcDbTextStyleTableRecord
  2
Annotative
 70
     0
 40
0.0
 41
1.0
 50
0.0
 71
     0
 42
0.2
  3
txt
  4

1001
AcadAnnotative
1000
AnnotativeData
1002
{
1070
     1
1070
     1
1002
}
  0
STYLE
  5
AF
330
3
100
AcDbSymbolTableRecord
100
AcDbTextStyleTableRecord
  2

 70
     1
 40
0.0
 41
1.0
 50
0.0
 71
     0
 42
0.2
  3
ltypeshp.shx
  4

  0
ENDTAB
  0
TABLE
  2
VIEW
  5
6
330
0
100
AcDbSymbolTable
 70
     0
  0
ENDTAB
  0
TABLE
  2
UCS
  5
7
330
0
100
AcDbSymbolTable
 70
     0
  0
ENDTAB
  0
TABLE
  2
APPID
  5
9
330
0
100
AcDbSymbolTable
 70
     2
  0
APPID
  5
56
330
9
100
AcDbSymbolTableRecord
100
AcDbRegAppTableRecord
  2
ACAD
 70
     0
  0
APPID
  5
5E
330
9
100
AcDbSymbolTableRecord
100
AcDbRegAppTableRecord
  2
AcadAnnotative
 70
     0
  0
ENDTAB
  0
TABLE
  2
DIMSTYLE
  5
A
330
0
100
AcDbSymbolTable
 70
     2
100
AcDbDimStyleTable
 71
     0
  0
DIMSTYLE
105
58
330
A
100
AcDbSymbolTableRecord
100
AcDbDimStyleTableRecord
  2
Standard
 70
     0
340
55
  0
DIMSTYLE
105
59
330
A
100
AcDbSymbolTableRecord
100
AcDbDimStyleTableRecord
  2
Annotative
 70
     0
340
55
1001
AcadAnnotative
1000
AnnotativeData
1002
{
1070
     1
1070
     1
1002
}
  0
ENDTAB
  0
TABLE
  2
BLOCK_RECORD
  5
1
330
0
100
AcDbSymbolTable
 70
     1
  0
BLOCK_RECORD
  5
71
330
1
100
AcDbSymbolTableRecord
100
AcDbBlockTableRecord
  2
*Model_Space
340
74
 70
     0
280
     1
281
     0
  0
BLOCK_RECORD
  5
6D
330
1
100
AcDbSymbolTableRecord
100
AcDbBlockTableRecord
  2
*Paper_Space
340
70
 70
     0
280
     1
281
     0
  0
BLOCK_RECORD
  5
75
330
1
100
AcDbSymbolTableRecord
100
AcDbBlockTableRecord
  2
*Paper_Space0
340
78
 70
     0
280
     1
281
     0
  0
ENDTAB
  0
ENDSEC
  0
SECTION
  2
BLOCKS
  0
BLOCK
  5
72
330
71
100
AcDbEntity
  8
0
100
AcDbBlockBegin
  2
*Model_Space
 70
     0
 10
0.0
 20
0.0
 30
0.0
  3
*Model_Space
  1

  0
ENDBLK
  5
73
330
71
100
AcDbEntity
  8
0
100
AcDbBlockEnd
  0
BLOCK
  5
6E
330
6D
100
AcDbEntity
 67
     1
  8
0
100
AcDbBlockBegin
  2
*Paper_Space
 70
     0
 10
0.0
 20
0.0
 30
0.0
  3
*Paper_Space
  1

  0
ENDBLK
  5
6F
330
6D
100
AcDbEntity
 67
     1
  8
0
100
AcDbBlockEnd
  0
BLOCK
  5
76
330
75
100
AcDbEntity
 67
     1
  8
0
100
AcDbBlockBegin
  2
*Paper_Space0
 70
     0
 10
0.0
 20
0.0
 30
0.0
  3
*Paper_Space0
  1

  0
ENDBLK
  5
77
330
75
100
AcDbEntity
 67
     1
  8
0
100
AcDbBlockEnd
  0
ENDSEC
  0
SECTION
  2
ENTITIES
  0
LINE
  5
D0
330
71
100
AcDbEntity
  8
Visible (ANSI)
100
AcDbLine
 10
59.26002427401623
 20
354.6179829066371
 30
0.0
 11
57.6743100153065
 21
351.8122686687038
 31
0.0
  0
LINE
  5
D1
330
71
100
AcDbEntity
  8
Visible (ANSI)
100
AcDbLine
 10
59.26002427401623
 20
355.3122686090992
 30
0.0
 11
59.26002427401623
 21
354.6179829066371
 31
0.0
  0
LINE
  5
D2
330
71
100
AcDbEntity
  8
Visible (ANSI)
100
AcDbLine
 10
56.51431003506118
 20
355.3122686090992
 30
0.0
 11
59.26002427401623
 21
355.3122686090992
 31
0.0
  0
LINE
  5
D3
330
71
100
AcDbEntity
  8
Visible (ANSI)
100
AcDbLine
 10
56.51431003506118
 20
354.6436971919135
 30
0.0
 11
56.51431003506118
 21
355.3122686090992
 31
0.0
  0
LINE
  5
D4
330
71
100
AcDbEntity
  8
Visible (ANSI)
100
AcDbLine
 10
58.31716714721586
 20
354.6436971919135
 30
0.0
 11
56.51431003506118
 21
354.6436971919135
 31
0.0
  0
LINE
  5
D5
330
71
100
AcDbEntity
  8
Visible (ANSI)
100
AcDbLine
 10
56.66859574671942
 20
351.8122686687038
 30
0.0
 11
58.31716714721586
 21
354.6436971919135
 31
0.0
  0
LINE
  5
D6
330
71
100
AcDbEntity
  8
Visible (ANSI)
100
AcDbLine
 10
57.6743100153065
 20
351.8122686687038
 30
0.0
 11
56.66859574671942
 21
351.8122686687038
 31
0.0
  0
ARC
  5
D7
330
71
100
AcDbEntity
  8
Visible (ANSI)
100
AcDbCircle
 10
99.0892167155239
 20
375.3911075540415
 30
0.0
 40
4.999999999999994
100
AcDbArc
 50
12.70903299439617
 51
90.00000000000019
  0
LINE
  5
D8
330
71
100
AcDbEntity
  8
Visible (ANSI)
100
AcDbLine
 10
99.0892167155239
 20
380.3911075540415
 30
0.0
 11
53.4642167155239
 21
380.3911075540415
 31
0.0
  0
LINE
  5
D9
330
71
100
AcDbEntity
  8
Visible (ANSI)
100
AcDbLine
 10
103.9667160748267
 20
353.6911075540414
 30
0.0
 11
103.9667160748267
 21
376.4911075540415
 31
0.0
  0
LINE
  5
DA
330
71
100
AcDbEntity
  8
Visible (ANSI)
100
AcDbLine
 10
53.4642167155239
 20
349.7911075540415
 30
0.0
 11
99.0892167155239
 21
349.7911075540415
 31
0.0
  0
ARC
  5
DB
330
71
100
AcDbEntity
  8
Visible (ANSI)
100
AcDbCircle
 10
99.0892167155239
 20
354.7911075540414
 30
0.0
 40
5.000000000000007
100
AcDbArc
 50
270.0
 51
347.2909670056047
  0
SPLINE
  5
DC
330
71
100
AcDbEntity
  8
Visible (ANSI)
100
AcDbSpline
210
0.0
220
0.0
230
1.0
 70
     8
 71
     3
 72
    18
 73
    14
 74
     0
 42
0.000000001
 43
0.0000000001
 40
-0.0009109269136336
 40
-0.0009109269136336
 40
-0.0009109269136336
 40
-0.0009109269136336
 40
0.0
 40
0.0
 40
0.040705027122713
 40
0.040705027122713
 40
0.0813644133284063
 40
0.0813644133284063
 40
0.1597832178178368
 40
0.1597832178178368
 40
0.2377082170932069
 40
0.2377082170932069
 40
0.3154112551116439
 40
0.3154112551116439
 40
0.3154112551116439
 40
0.3154112551116439
 10
101.9667160748267
 20
376.2396341813264
 30
0.0
 10
101.9697213410408
 20
376.2400680475421
 30
0.0
 10
101.9727266506444
 20
376.2405015872568
 30
0.0
 10
102.1100260090697
 20
376.2602929736539
 30
0.0
 10
102.2440236333144
 20
376.2789449940147
 30
0.0
 10
102.5072059805536
 20
376.3145438654695
 30
0.0
 10
102.6357391787584
 20
376.3314051852509
 30
0.0
 10
102.9976573033078
 20
376.3777745891214
 30
0.0
 10
103.2141050093366
 20
376.4040609345727
 30
0.0
 10
103.5772619186838
 20
376.4470633384541
 30
0.0
 10
103.7208734419485
 20
376.4634371787418
 30
0.0
 10
103.9164330288095
 20
376.4855491815568
 30
0.0
 10
103.9667160748267
 20
376.4911075540415
 30
0.0
 10
103.9667160748267
 20
376.4911075540415
 30
0.0
  0
LINE
  5
DD
330
71
100
AcDbEntity
  8
Visible (ANSI)
100
AcDbLine
 10
53.4642167155239
 20
378.3911075540414
 30
0.0
 11
53.4642167155239
 21
380.3911075540415
 31
0.0
  0
SPLINE
  5
DE
330
71
100
AcDbEntity
  8
Visible (ANSI)
100
AcDbSpline
210
0.0
220
0.0
230
1.0
 70
     8
 71
     3
 72
    18
 73
    14
 74
     0
 42
0.000000001
 43
0.0000000001
 40
-0.3162164015190084
 40
-0.3162164015190084
 40
-0.3162164015190084
 40
-0.3162164015190084
 40
-0.3153057792269128
 40
-0.3153057792269128
 40
-0.2746143641655954
 40
-0.2746143641655954
 40
-0.2339685747636561
 40
-0.2339685747636561
 40
-0.1555759941107067
 40
-0.1555759941107067
 40
-0.0776770535396457
 40
-0.0776770535396457
 40
0.0
 40
0.0
 40
0.0
 40
0.0
 10
101.9667160748267
 20
353.9425809267566
 30
0.0
 10
101.9697213410361
 20
353.9421470605415
 30
0.0
 10
101.9727266506493
 20
353.941713520826
 30
0.0
 10
102.1100260089818
 20
353.9219221344354
 30
0.0
 10
102.2440236332982
 20
353.9032701140706
 30
0.0
 10
102.5072059805536
 20
353.8676712426135
 30
0.0
 10
102.6357391787584
 20
353.8508099228321
 30
0.0
 10
102.9976573033078
 20
353.8044405189615
 30
0.0
 10
103.2141050093366
 20
353.7781541735102
 30
0.0
 10
103.5772619186838
 20
353.7351517696288
 30
0.0
 10
103.7208734419485
 20
353.7187779293412
 30
0.0
 10
103.9164330288095
 20
353.6966659265262
 30
0.0
 10
103.9667160748267
 20
353.6911075540414
 30
0.0
 10
103.9667160748267
 20
353.6911075540414
 30
0.0
  0
LINE
  5
DF
330
71
100
AcDbEntity
  8
Visible (ANSI)
100
AcDbLine
 10
53.4642167155239
 20
349.7911075540415
 30
0.0
 11
53.4642167155239
 21
351.7911075540415
 31
0.0
  0
LINE
  5
E0
330
71
100
AcDbEntity
  8
Visible (ANSI)
100
AcDbLine
 10
53.4642167155239
 20
378.3911075540414
 30
0.0
 11
53.4642167155239
 21
351.7911075540415
 31
0.0
  0
CIRCLE
  5
E1
330
71
100
AcDbEntity
  8
Visible (ANSI)
100
AcDbCircle
 10
69.23921671552391
 20
365.0911075540415
 30
0.0
 40
1.1
  0
CIRCLE
  5
E2
330
71
100
AcDbEntity
  8
Visible (ANSI)
100
AcDbCircle
 10
96.23921671552389
 20
365.0911075540415
 30
0.0
 40
1.1
  0
LINE
  5
E3
330
71
100
AcDbEntity
  8
Visible (ANSI)
100
AcDbLine
 10
71.48921671552391
 20
371.2911075540414
 30
0.0
 11
93.9892167155239
 21
371.2911075540414
 31
0.0
  0
LINE
  5
E4
330
71
100
AcDbEntity
  8
Visible (ANSI)
100
AcDbLine
 10
93.9892167155239
 20
371.2911075540414
 30
0.0
 11
93.9892167155239
 21
358.8911075540415
 31
0.0
  0
LINE
  5
E5
330
71
100
AcDbEntity
  8
Visible (ANSI)
100
AcDbLine
 10
93.9892167155239
 20
358.8911075540415
 30
0.0
 11
71.4892167155239
 21
358.8911075540415
 31
0.0
  0
LINE
  5
E6
330
71
100
AcDbEntity
  8
Visible (ANSI)
100
AcDbLine
 10
71.4892167155239
 20
358.8911075540415
 30
0.0
 11
71.48921671552391
 21
371.2911075540414
 31
0.0
  0
SPLINE
  5
E7
330
71
100
AcDbEntity
  8
Visible (ANSI)
100
AcDbSpline
210
0.0
220
0.0
230
1.0
 70
     8
 71
     2
 72
     7
 73
     4
 74
     0
 42
0.000000001
 43
0.0000000001
 40
0.0
 40
0.0
 40
0.0
 40
1.0
 40
2.0
 40
2.0
 40
2.0
 10
202.0432864571475
 20
365.16306874477
 30
0.0
 10
202.0432864571475
 20
365.3430687417046
 30
0.0
 10
201.7661436047243
 20
365.5544973095326
 30
0.0
 10
201.5375721800454
 20
365.5544973095326
 30
0.0
  0
SPLINE
  5
E8
330
71
100
AcDbEntity
  8
Visible (ANSI)
100
AcDbSpline
210
0.0
220
0.0
230
1.0
 70
     8
 71
     2
 72
     7
 73
     4
 74
     0
 42
0.000000001
 43
0.0000000001
 40
0.0
 40
0.0
 40
0.0
 40
1.0
 40
2.0
 40
2.0
 40
2.0
 10
201.5375721800454
 20
365.5544973095326
 30
0.0
 10
201.4547150385993
 20
365.5544973095326
 30
0.0
 10
201.2775721844732
 20
365.5116401674053
 30
0.0
 10
201.2032864714526
 20
365.4716401680864
 30
0.0
  0
SPLINE
  5
E9
330
71
100
AcDbEntity
  8
Visible (ANSI)
100
AcDbSpline
210
0.0
220
0.0
230
1.0
 70
     8
 71
     2
 72
     7
 73
     4
 74
     0
 42
0.000000001
 43
0.0000000001
 40
0.0
 40
0.0
 40
0.0
 40
1.0
 40
2.0
 40
2.0
 40
2.0
 10
201.2032864714526
 20
365.4716401680864
 30
0.0
 10
201.1347150440489
 20
365.4316401687677
 30
0.0
 10
201.0461436169858
 20
365.3030687423858
 30
0.0
 10
201.0461436169858
 20
365.2202116009397
 30
0.0
  0
SPLINE
  5
EA
330
71
100
AcDbEntity
  8
Visible (ANSI)
100
AcDbSpline
210
0.0
220
0.0
230
1.0
 70
     8
 71
     2
 72
     7
 73
     4
 74
     0
 42
0.000000001
 43
0.0000000001
 40
0.0
 40
0.0
 40
0.0
 40
1.0
 40
2.0
 40
2.0
 40
2.0
 10
201.0461436169858
 20
365.2202116009397
 30
0.0
 10
201.0461436169858
 20
365.0830687461324
 30
0.0
 10
201.2032864714526
 20
364.9259258916657
 30
0.0
 10
201.3832864683872
 20
364.8487830358365
 30
0.0
  0
SPLINE
  5
EB
330
71
100
AcDbEntity
  8
Visible (ANSI)
100
AcDbSpline
210
0.0
220
0.0
230
1.0
 70
     8
 71
     2
 72
     7
 73
     4
 74
     0
 42
0.000000001
 43
0.0000000001
 40
0.0
 40
0.0
 40
0.0
 40
1.0
 40
2.0
 40
2.0
 40
2.0
 10
201.3832864683872
 20
364.8487830358365
 30
0.0
 10
201.4490007529824
 20
364.8202116077517
 30
0.0
 10
201.6775721776612
 20
364.7373544663055
 30
0.0
 10
201.840429317745
 20
364.6859258957528
 30
0.0
  0
SPLINE
  5
EC
330
71
100
AcDbEntity
  8
Visible (ANSI)
100
AcDbSpline
210
0.0
220
0.0
230
1.0
 70
     8
 71
     2
 72
     7
 73
     4
 74
     0
 42
0.000000001
 43
0.0000000001
 40
0.0
 40
0.0
 40
0.0
 40
1.0
 40
2.0
 40
2.0
 40
2.0
 10
201.840429317745
 20
364.6859258957528
 30
0.0
 10
201.9490007444674
 20
364.8144973221347
 30
0.0
 10
202.0432864571475
 20
365.0173544615372
 30
0.0
 10
202.0432864571475
 20
365.16306874477
 30
0.0
  0
SPLINE
  5
ED
330
71
100
AcDbEntity
  8
Visible (ANSI)
100
AcDbSpline
210
0.0
220
0.0
230
1.0
 70
     8
 71
     2
 72
     7
 73
     4
 74
     0
 42
0.000000001
 43
0.0000000001
 40
0.0
 40
0.0
 40
0.0
 40
1.0
 40
2.0
 40
2.0
 40
2.0
 10
202.1175721701681
 20
363.5059259158481
 30
0.0
 10
202.1175721701681
 20
363.6773544843572
 30
0.0
 10
201.9490007444674
 20
363.8487830528664
 30
0.0
 10
201.6832864632782
 20
363.9630687652058
 30
0.0
  0
SPLINE
  5
EE
330
71
100
AcDbEntity
  8
Visible (ANSI)
100
AcDbSpline
210
0.0
220
0.0
230
1.0
 70
     8
 71
     2
 72
     7
 73
     4
 74
     0
 42
0.000000001
 43
0.0000000001
 40
0.0
 40
0.0
 40
0.0
 40
1.0
 40
2.0
 40
2.0
 40
2.0
 10
201.6832864632782
 20
363.9630687652058
 30
0.0
 10
201.6061436074491
 20
363.9973544789077
 30
0.0
 10
201.3090007553666
 20
364.1002116200132
 30
0.0
 10
201.2090007570695
 20
364.140211619332
 30
0.0
  0
SPLINE
  5
EF
330
71
100
AcDbEntity
  8
Visible (ANSI)
100
AcDbSpline
210
0.0
220
0.0
230
1.0
 70
     8
 71
     2
 72
     7
 73
     4
 74
     0
 42
0.000000001
 43
0.0000000001
 40
0.0
 40
0.0
 40
0.0
 40
1.0
 40
2.0
 40
2.0
 40
2.0
 10
201.2090007570695
 20
364.140211619332
 30
0.0
 10
201.1061436159641
 20
364.0487830494604
 30
0.0
 10
200.9432864758804
 20
363.7859259110797
 30
0.0
 10
200.9432864758804
 20
363.6259259138045
 30
0.0
  0
SPLINE
  5
F0
330
71
100
AcDbEntity
  8
Visible (ANSI)
100
AcDbSpline
210
0.0
220
0.0
230
1.0
 70
     8
 71
     2
 72
     7
 73
     4
 74
     0
 42
0.000000001
 43
0.0000000001
 40
0.0
 40
0.0
 40
0.0
 40
1.0
 40
2.0
 40
2.0
 40
2.0
 10
200.9432864758804
 20
363.6259259138045
 30
0.0
 10
200.9432864758804
 20
363.3802116322747
 30
0.0
 10
201.2947150413241
 20
363.0916402086177
 30
0.0
 10
201.5775721793642
 20
363.0916402086177
 30
0.0
  0
SPLINE
  5
F1
330
71
100
AcDbEntity
  8
Visible (ANSI)
100
AcDbSpline
210
0.0
220
0.0
230
1.0
 70
     8
 71
     2
 72
     7
 73
     4
 74
     0
 42
0.000000001
 43
0.0000000001
 40
0.0
 40
0.0
 40
0.0
 40
1.0
 40
2.0
 40
2.0
 40
2.0
 10
201.5775721793642
 20
363.0916402086177
 30
0.0
 10
201.6518578923848
 20
363.0916402086177
 30
0.0
 10
201.8547150317874
 20
363.1373544935534
 30
0.0
 10
201.929000744808
 20
363.1830687784892
 30
0.0
  0
SPLINE
  5
F2
330
71
100
AcDbEntity
  8
Visible (ANSI)
100
AcDbSpline
210
0.0
220
0.0
230
1.0
 70
     8
 71
     2
 72
     7
 73
     4
 74
     0
 42
0.000000001
 43
0.0000000001
 40
0.0
 40
0.0
 40
0.0
 40
1.0
 40
2.0
 40
2.0
 40
2.0
 10
201.929000744808
 20
363.1830687784892
 30
0.0
 10
202.0147150290626
 20
363.2373544918504
 30
0.0
 10
202.1175721701681
 20
363.3830687750832
 30
0.0
 10
202.1175721701681
 20
363.5059259158481
 30
0.0
  0
SPLINE
  5
F3
330
71
100
AcDbEntity
  8
Visible (ANSI)
100
AcDbSpline
210
0.0
220
0.0
230
1.0
 70
     8
 71
     2
 72
     7
 73
     4
 74
     0
 42
0.000000001
 43
0.0000000001
 40
0.0
 40
0.0
 40
0.0
 40
1.0
 40
2.0
 40
2.0
 40
2.0
 10
203.0147150120327
 20
363.5459259151669
 30
0.0
 10
203.0147150120327
 20
363.0802116373837
 30
0.0
 10
202.2204293112736
 20
362.488783076027
 30
0.0
 10
201.52900075162
 20
362.488783076027
 30
0.0
  0
SPLINE
  5
F4
330
71
100
AcDbEntity
  8
Visible (ANSI)
100
AcDbSpline
210
0.0
220
0.0
230
1.0
 70
     8
 71
     2
 72
     7
 73
     4
 74
     0
 42
0.000000001
 43
0.0000000001
 40
0.0
 40
0.0
 40
0.0
 40
1.0
 40
2.0
 40
2.0
 40
2.0
 10
202.2947150242942
 20
364.4744973279248
 30
0.0
 10
202.6604293037804
 20
364.3373544731176
 30
0.0
 10
203.0147150120327
 20
363.8659259097173
 30
0.0
 10
203.0147150120327
 20
363.5459259151669
 30
0.0
  0
LINE
  5
F5
330
71
100
AcDbEntity
  8
Visible (ANSI)
100
AcDbLine
 10
202.2947150242942
 20
364.4887830419673
 30
0.0
 11
202.2947150242942
 21
364.4744973279248
 31
0.0
  0
SPLINE
  5
F6
330
71
100
AcDbEntity
  8
Visible (ANSI)
100
AcDbSpline
210
0.0
220
0.0
230
1.0
 70
     8
 71
     2
 72
     7
 73
     4
 74
     0
 42
0.000000001
 43
0.0000000001
 40
0.0
 40
0.0
 40
0.0
 40
1.0
 40
2.0
 40
2.0
 40
2.0
 10
202.9261435849696
 20
365.2659258858755
 30
0.0
 10
202.9261435849696
 20
365.0144973187287
 30
0.0
 10
202.6147150188446
 20
364.6259258967746
 30
0.0
 10
202.2947150242942
 20
364.4887830419673
 30
0.0
  0
SPLINE
  5
F7
330
71
100
AcDbEntity
  8
Visible (ANSI)
100
AcDbSpline
210
0.0
220
0.0
230
1.0
 70
     8
 71
     2
 72
     7
 73
     4
 74
     0
 42
0.000000001
 43
0.0000000001
 40
0.0
 40
0.0
 40
0.0
 40
1.0
 40
2.0
 40
2.0
 40
2.0
 10
201.5404293228539
 20
366.1487830136977
 30
0.0
 10
202.1890007403803
 20
366.1487830136977
 30
0.0
 10
202.9261435849696
 20
365.6659258790635
 30
0.0
 10
202.9261435849696
 20
365.2659258858755
 30
0.0
  0
SPLINE
  5
F8
330
71
100
AcDbEntity
  8
Visible (ANSI)
100
AcDbSpline
210
0.0
220
0.0
230
1.0
 70
     8
 71
     2
 72
     7
 73
     4
 74
     0
 42
0.000000001
 43
0.0000000001
 40
0.0
 40
0.0
 40
0.0
 40
1.0
 40
2.0
 40
2.0
 40
2.0
 10
200.1490007751212
 20
365.2002116012803
 30
0.0
 10
200.1490007751212
 20
365.6173544513192
 30
0.0
 10
200.9204293334124
 20
366.1487830136977
 30
0.0
 10
201.5404293228539
 20
366.1487830136977
 30
0.0
  0
SPLINE
  5
F9
330
71
100
AcDbEntity
  8
Visible (ANSI)
100
AcDbSpline
210
0.0
220
0.0
230
1.0
 70
     8
 71
     2
 72
     7
 73
     4
 74
     0
 42
0.000000001
 43
0.0000000001
 40
0.0
 40
0.0
 40
0.0
 40
1.0
 40
2.0
 40
2.0
 40
2.0
 10
200.7432864792863
 20
364.3516401871599
 30
0.0
 10
200.4375721987783
 20
364.4916401847758
 30
0.0
 10
200.1490007751212
 20
364.9202116060486
 30
0.0
 10
200.1490007751212
 20
365.2002116012803
 30
0.0
  0
LINE
  5
FA
330
71
100
AcDbEntity
  8
Visible (ANSI)
100
AcDbLine
 10
200.7432864792863
 20
364.3373544731176
 30
0.0
 11
200.7432864792863
 21
364.3516401871599
 31
0.0
  0
SPLINE
  5
FB
330
71
100
AcDbEntity
  8
Visible (ANSI)
100
AcDbSpline
210
0.0
220
0.0
230
1.0
 70
     8
 71
     2
 72
     7
 73
     4
 74
     0
 42
0.000000001
 43
0.0000000001
 40
0.0
 40
0.0
 40
0.0
 40
1.0
 40
2.0
 40
2.0
 40
2.0
 10
200.0547150624412
 20
363.5144973442735
 30
0.0
 10
200.0547150624412
 20
363.7773544826542
 30
0.0
 10
200.3632864857577
 20
364.1830687614592
 30
0.0
 10
200.7432864792863
 20
364.3373544731176
 30
0.0
  0
SPLINE
  5
FC
330
71
100
AcDbEntity
  8
Visible (ANSI)
100
AcDbSpline
210
0.0
220
0.0
230
1.0
 70
     8
 71
     2
 72
     7
 73
     4
 74
     0
 42
0.000000001
 43
0.0000000001
 40
0.0
 40
0.0
 40
0.0
 40
1.0
 40
2.0
 40
2.0
 40
2.0
 10
200.406143627885
 20
362.7887830709181
 30
0.0
 10
200.2261436309503
 20
362.9287830685339
 30
0.0
 10
200.0547150624412
 20
363.3002116336371
 30
0.0
 10
200.0547150624412
 20
363.5144973442735
 30
0.0
  0
SPLINE
  5
FD
330
71
100
AcDbEntity
  8
Visible (ANSI)
100
AcDbSpline
210
0.0
220
0.0
230
1.0
 70
     8
 71
     2
 72
     7
 73
     4
 74
     0
 42
0.000000001
 43
0.0000000001
 40
0.0
 40
0.0
 40
0.0
 40
1.0
 40
2.0
 40
2.0
 40
2.0
 10
201.52900075162
 20
362.488783076027
 30
0.0
 10
201.1404293296659
 20
362.488783076027
 30
0.0
 10
200.5861436248196
 20
362.6487830733023
 30
0.0
 10
200.406143627885
 20
362.7887830709181
 30
0.0
  0
CIRCLE
  5
FE
330
71
100
AcDbEntity
  8
Visible (ANSI)
100
AcDbCircle
 10
243.2608039284545
 20
350.1940013243687
 30
0.0
 40
1.675
  0
CIRCLE
  5
FF
330
71
100
AcDbEntity
  8
Visible (ANSI)
100
AcDbCircle
 10
182.6858039284545
 20
364.0265505393261
 30
0.0
 40
1.675
  0
CIRCLE
  5
100
330
71
100
AcDbEntity
  8
Visible (ANSI)
100
AcDbCircle
 10
243.2608039284545
 20
377.8590997542834
 30
0.0
 40
1.675
  0
CIRCLE
  5
101
330
71
100
AcDbEntity
  8
Visible (ANSI)
100
AcDbCircle
 10
243.2608039284545
 20
377.8590997542834
 30
0.0
 40
0.675
  0
CIRCLE
  5
102
330
71
100
AcDbEntity
  8
Visible (ANSI)
100
AcDbCircle
 10
243.2608039284545
 20
350.1940013243687
 30
0.0
 40
0.675
  0
CIRCLE
  5
103
330
71
100
AcDbEntity
  8
Visible (ANSI)
100
AcDbCircle
 10
182.6858039284545
 20
364.0265505393261
 30
0.0
 40
0.675
  0
LINE
  5
104
330
71
100
AcDbEntity
  8
Visible (ANSI)
100
AcDbLine
 10
241.2049184878609
 20
380.6916489692407
 30
0.0
 11
226.5108039284545
 21
370.0265505393261
 31
0.0
  0
LINE
  5
105
330
71
100
AcDbEntity
  8
Visible (ANSI)
100
AcDbLine
 10
226.5108039284545
 20
370.0265505393261
 30
0.0
 11
204.4594473454635
 21
370.0265505393261
 31
0.0
  0
ARC
  5
106
330
71
100
AcDbEntity
  8
Visible (ANSI)
100
AcDbCircle
 10
204.485125636959
 20
373.0008722478306
 30
0.0
 40
2.974432550980958
100
AcDbArc
 50
180.4946409032103
 51
269.5053590967793
  0
LINE
  5
107
330
71
100
AcDbEntity
  8
Visible (ANSI)
100
AcDbLine
 10
201.5108039284545
 20
372.9751939563356
 30
0.0
 11
201.5108039284545
 21
383.527976088665
 31
0.0
  0
ARC
  5
108
330
71
100
AcDbEntity
  8
Visible (ANSI)
100
AcDbCircle
 10
198.5122294777935
 20
383.5279760886651
 30
0.0
 40
2.998574450661004
100
AcDbArc
 50
0.0
 51
90.00000000000067
  0
LINE
  5
109
330
71
100
AcDbEntity
  8
Visible (ANSI)
100
AcDbLine
 10
198.5122294777935
 20
386.5265505393261
 30
0.0
 11
188.0093783791155
 21
386.5265505393261
 31
0.0
  0
ARC
  5
10A
330
71
100
AcDbEntity
  8
Visible (ANSI)
100
AcDbCircle
 10
188.0093783791155
 20
383.527976088665
 30
0.0
 40
2.998574450661013
100
AcDbArc
 50
90.0
 51
180.0
  0
LINE
  5
10B
330
71
100
AcDbEntity
  8
Visible (ANSI)
100
AcDbLine
 10
185.0108039284545
 20
383.5279760886651
 30
0.0
 11
185.0108039284545
 21
372.8977650539003
 31
0.0
  0
ARC
  5
10C
330
71
100
AcDbEntity
  8
Visible (ANSI)
100
AcDbCircle
 10
181.2478007947644
 20
372.9925413105033
 30
0.0
 40
3.764196477732921
100
AcDbArc
 50
299.3669303656406
 51
358.5572343391428
  0
ARC
  5
10D
330
71
100
AcDbEntity
  8
Visible (ANSI)
100
AcDbCircle
 10
185.0108039284545
 20
364.0265505393261
 30
0.0
 40
6.000000000000001
100
AcDbArc
 50
108.6330732269211
 51
251.3669267730777
  0
ARC
  5
10E
330
71
100
AcDbEntity
  8
Visible (ANSI)
100
AcDbCircle
 10
181.2478007947644
 20
355.0605597681488
 30
0.0
 40
3.764196477732943
100
AcDbArc
 50
1.442765660857228
 51
60.63306963435994
  0
LINE
  5
10F
330
71
100
AcDbEntity
  8
Visible (ANSI)
100
AcDbLine
 10
185.0108039284545
 20
355.1553360247517
 30
0.0
 11
185.0108039284545
 21
344.5251249899871
 31
0.0
  0
LINE
  5
110
330
71
100
AcDbEntity
  8
Visible (ANSI)
100
AcDbLine
 10
201.5108039284545
 20
344.5251249899871
 30
0.0
 11
201.5108039284545
 21
355.0779071223166
 31
0.0
  0
SPLINE
  5
111
330
71
100
AcDbEntity
  8
Visible (ANSI)
100
AcDbSpline
210
0.0
220
0.0
230
1.0
 70
     8
 71
     3
 72
    16
 73
    12
 74
     0
 42
0.000000001
 43
0.0000000001
 40
-0.472938293848813
 40
-0.472938293848813
 40
-0.472938293848813
 40
-0.472938293848813
 40
-0.4720990894224082
 40
-0.4720990894224082
 40
-0.4116773188151753
 40
-0.4116773188151753
 40
-0.3529180596661986
 40
-0.3529180596661986
 40
-0.2944154384225722
 40
-0.2944154384225722
 40
-0.2360495447111861
 40
-0.2360495447111861
 40
-0.2360495447111861
 40
-0.2360495447111861
 10
183.6863943208991
 20
368.3272410875305
 30
0.0
 10
183.6853303021898
 20
368.3298281747946
 30
0.0
 10
183.6842660811608
 20
368.3324151731477
 30
0.0
 10
183.6065652896952
 20
368.52125444568
 30
0.0
 10
183.5296740300495
 20
368.7050185828898
 30
0.0
 10
183.3869907978782
 20
369.0412769176874
 30
0.0
 10
183.3223067912305
 20
369.1913427392695
 30
0.0
 10
183.2128592833757
 20
369.4428870774216
 30
0.0
 10
183.1690750420043
 20
369.5421910781061
 30
0.0
 10
183.1092595975281
 20
369.6773538298715
 30
0.0
 10
183.0937658714031
 20
369.7120553619269
 30
0.0
 10
183.0937658714031
 20
369.7120553619269
 30
0.0
  0
SPLINE
  5
112
330
71
100
AcDbEntity
  8
Visible (ANSI)
100
AcDbSpline
210
0.0
220
0.0
230
1.0
 70
     8
 71
     3
 72
    18
 73
    14
 74
     0
 42
0.000000001
 43
0.0000000001
 40
-0.4728180661177646
 40
-0.4728180661177646
 40
-0.4728180661177646
 40
-0.4728180661177646
 40
-0.4720228375686106
 40
-0.4720228375686106
 40
-0.4129759345750632
 40
-0.4129759345750632
 40
-0.3540492492993561
 40
-0.3540492492993561
 40
-0.2953585494584106
 40
-0.2953585494584106
 40
-0.2369064797454003
 40
-0.2369064797454003
 40
-0.2359443053811865
 40
-0.2359443053811865
 40
-0.2359443053811865
 40
-0.2359443053811865
 10
183.6863943208991
 20
359.7258599911216
 30
0.0
 10
183.6853860334576
 20
359.7234084105473
 30
0.0
 10
183.684377564239
 20
359.7209569095798
 30
0.0
 10
183.6084758750351
 20
359.5364857301967
 30
0.0
 10
183.533319953665
 20
359.3567912931566
 30
0.0
 10
183.3916036537458
 20
359.022586885502
 30
0.0
 10
183.3263775689204
 20
358.871174427031
 30
0.0
 10
183.2157250243327
 20
358.616744079593
 30
0.0
 10
183.1713033305777
 20
358.5159604788576
 30
0.0
 10
183.1103339143357
 20
358.3781603984089
 30
0.0
 10
183.0942888108015
 20
358.3422202596206
 30
0.0
 10
183.093770069803
 20
358.3410551463965
 30
0.0
 10
183.093765871403
 20
358.3410457167253
 30
0.0
 10
183.093765871403
 20
358.3410457167253
 30
0.0
  0
SPLINE
  5
113
330
71
100
AcDbEntity
  8
Visible (ANSI)
100
AcDbSpline
210
0.0
220
0.0
230
1.0
 70
     8
 71
     3
 72
    16
 73
    12
 74
     0
 42
0.000000001
 43
0.0000000001
 40
-0.2363618689215446
 40
-0.2363618689215446
 40
-0.2363618689215446
 40
-0.2363618689215446
 40
-0.2343233603838248
 40
-0.2343233603838248
 40
-0.1757868017084359
 40
-0.1757868017084359
 40
-0.1171872169461454
 40
-0.1171872169461454
 40
-0.0585923062139634
 40
-0.0585923062139634
 40
0.0
 40
0.0
 40
0.0
 40
0.0
 10
186.5108039284545
 20
372.8804584351645
 30
0.0
 10
186.5040092683276
 20
372.8805307777697
 30
0.0
 10
186.497214687342
 20
372.8806031895727
 30
0.0
 10
186.295327426635
 20
372.882756853121
 30
0.0
 10
186.1026124242095
 20
372.8848730365835
 30
0.0
 10
185.7433942972979
 20
372.8889308648688
 30
0.0
 10
185.5803525398872
 20
372.8908331472696
 30
0.0
 10
185.3059644510734
 20
372.8941051826899
 30
0.0
 10
185.1972367217686
 20
372.8954416603392
 30
0.0
 10
185.0489489651321
 20
372.8972815321877
 30
0.0
 10
185.0108039284545
 20
372.8977650539003
 30
0.0
 10
185.0108039284545
 20
372.8977650539003
 30
0.0
  0
LINE
  5
114
330
71
100
AcDbEntity
  8
Visible (ANSI)
100
AcDbLine
 10
226.5108039284545
 20
370.0265505393261
 30
0.0
 11
226.99778445655
 21
368.5265505393261
 31
0.0
  0
ARC
  5
115
330
71
100
AcDbEntity
  8
Visible (ANSI)
100
AcDbCircle
 10
243.2608039284545
 20
377.8590997542834
 30
0.0
 40
3.500000000000003
100
AcDbArc
 50
305.9724260773733
 51
125.9724260773734
  0
LINE
  5
116
330
71
100
AcDbEntity
  8
Visible (ANSI)
100
AcDbLine
 10
238.4278103512086
 20
370.0265505393261
 30
0.0
 11
245.3166893690481
 21
375.0265505393261
 31
0.0
  0
LINE
  5
117
330
71
100
AcDbEntity
  8
Visible (ANSI)
100
AcDbLine
 10
238.4278103512086
 20
370.0265505393261
 30
0.0
 11
236.9278103512086
 21
370.7912934174625
 31
0.0
  0
LINE
  5
118
330
71
100
AcDbEntity
  8
Visible (ANSI)
100
AcDbLine
 10
238.4278103512086
 20
358.026550539326
 30
0.0
 11
238.4278103512086
 21
370.0265505393261
 31
0.0
  0
LINE
  5
119
330
71
100
AcDbEntity
  8
Visible (ANSI)
100
AcDbLine
 10
238.4278103512085
 20
358.026550539326
 30
0.0
 11
236.9278103512086
 21
357.2618076611896
 31
0.0
  0
LINE
  5
11A
330
71
100
AcDbEntity
  8
Visible (ANSI)
100
AcDbLine
 10
245.3166893690481
 20
353.026550539326
 30
0.0
 11
238.4278103512086
 21
358.026550539326
 31
0.0
  0
ARC
  5
11B
330
71
100
AcDbEntity
  8
Visible (ANSI)
100
AcDbCircle
 10
243.2608039284545
 20
350.1940013243687
 30
0.0
 40
3.5
100
AcDbArc
 50
234.0275739226266
 51
54.0275739226266
  0
LINE
  5
11C
330
71
100
AcDbEntity
  8
Visible (ANSI)
100
AcDbLine
 10
226.5108039284545
 20
358.026550539326
 30
0.0
 11
241.2049184878609
 21
347.3614521094114
 31
0.0
  0
LINE
  5
11D
330
71
100
AcDbEntity
  8
Visible (ANSI)
100
AcDbLine
 10
226.5108039284545
 20
358.0265505393261
 30
0.0
 11
226.99778445655
 21
359.5265505393261
 31
0.0
  0
LINE
  5
11E
330
71
100
AcDbEntity
  8
Visible (ANSI)
100
AcDbLine
 10
204.4594473454635
 20
358.026550539326
 30
0.0
 11
226.5108039284545
 21
358.026550539326
 31
0.0
  0
ARC
  5
11F
330
71
100
AcDbEntity
  8
Visible (ANSI)
100
AcDbCircle
 10
204.485125636959
 20
355.0522288308216
 30
0.0
 40
2.974432550980962
100
AcDbArc
 50
90.49464090322132
 51
179.5053590967897
  0
ARC
  5
120
330
71
100
AcDbEntity
  8
Visible (ANSI)
100
AcDbCircle
 10
198.5122294777935
 20
344.5251249899871
 30
0.0
 40
2.998574450661013
100
AcDbArc
 50
270.0
 51
0.0
  0
LINE
  5
121
330
71
100
AcDbEntity
  8
Visible (ANSI)
100
AcDbLine
 10
188.0093783791155
 20
341.5265505393261
 30
0.0
 11
198.5122294777935
 21
341.5265505393261
 31
0.0
  0
ARC
  5
122
330
71
100
AcDbEntity
  8
Visible (ANSI)
100
AcDbCircle
 10
188.0093783791155
 20
344.5251249899871
 30
0.0
 40
2.998574450661006
100
AcDbArc
 50
180.0
 51
270.0
  0
SPLINE
  5
123
330
71
100
AcDbEntity
  8
Visible (ANSI)
100
AcDbSpline
210
0.0
220
0.0
230
1.0
 70
     8
 71
     3
 72
    16
 73
    12
 74
     0
 42
0.000000001
 43
0.0000000001
 40
-0.0020385135692393
 40
-0.0020385135692393
 40
-0.0020385135692393
 40
-0.0020385135692393
 40
0.0
 40
0.0
 40
0.0585367031581806
 40
0.0585367031581806
 40
0.1171364325584111
 40
0.1171364325584111
 40
0.1757314879169987
 40
0.1757314879169987
 40
0.2343239387509508
 40
0.2343239387509508
 40
0.2343239387509508
 40
0.2343239387509508
 10
186.5108039284544
 20
355.1726426434879
 30
0.0
 10
186.5040092683279
 20
355.1725703008828
 30
0.0
 10
186.4972146873417
 20
355.1724978890769
 30
0.0
 10
186.2953274266415
 20
355.1703442255484
 30
0.0
 10
186.1026124242107
 20
355.1682280420692
 30
0.0
 10
185.7433942972981
 20
355.1641702137837
 30
0.0
 10
185.5803525398873
 20
355.1622679313824
 30
0.0
 10
185.3059644510736
 20
355.1589958959624
 30
0.0
 10
185.1972367217687
 20
355.1576594183128
 30
0.0
 10
185.0489489651321
 20
355.1558195464644
 30
0.0
 10
185.0108039284545
 20
355.1553360247517
 30
0.0
 10
185.0108039284545
 20
355.1553360247517
 30
0.0
  0
LINE
  5
124
330
71
100
AcDbEntity
  8
Visible (ANSI)
100
AcDbLine
 10
189.9108039284545
 20
381.5265505393261
 30
0.0
 11
196.6108039284545
 21
381.5265505393261
 31
0.0
  0
LINE
  5
125
330
71
100
AcDbEntity
  8
Visible (ANSI)
100
AcDbLine
 10
196.6108039284545
 20
381.5265505393261
 30
0.0
 11
196.6108039284545
 21
346.5265505393261
 31
0.0
  0
LINE
  5
126
330
71
100
AcDbEntity
  8
Visible (ANSI)
100
AcDbLine
 10
196.6108039284545
 20
381.5265505393261
 30
0.0
 11
198.1108039284545
 21
383.0265505393261
 31
0.0
  0
LINE
  5
127
330
71
100
AcDbEntity
  8
Visible (ANSI)
100
AcDbLine
 10
198.1108039284545
 20
345.0265505393261
 30
0.0
 11
196.6108039284545
 21
346.5265505393261
 31
0.0
  0
LINE
  5
128
330
71
100
AcDbEntity
  8
Visible (ANSI)
100
AcDbLine
 10
188.4108039284545
 20
383.0265505393261
 30
0.0
 11
189.9108039284545
 21
381.5265505393261
 31
0.0
  0
LINE
  5
129
330
71
100
AcDbEntity
  8
Visible (ANSI)
100
AcDbLine
 10
196.6108039284545
 20
346.5265505393261
 30
0.0
 11
189.9108039284545
 21
346.5265505393261
 31
0.0
  0
LINE
  5
12A
330
71
100
AcDbEntity
  8
Visible (ANSI)
100
AcDbLine
 10
188.4108039284545
 20
345.0265505393261
 30
0.0
 11
189.9108039284545
 21
346.5265505393261
 31
0.0
  0
LINE
  5
12B
330
71
100
AcDbEntity
  8
Visible (ANSI)
100
AcDbLine
 10
189.9108039284545
 20
346.5265505393261
 30
0.0
 11
189.9108039284545
 21
381.5265505393261
 31
0.0
  0
CIRCLE
  5
12C
330
71
100
AcDbEntity
  8
Visible (ANSI)
100
AcDbCircle
 10
301.46429182824
 20
367.3331872104147
 30
0.0
 40
1.2
  0
CIRCLE
  5
12D
330
71
100
AcDbEntity
  8
Visible (ANSI)
100
AcDbCircle
 10
301.46429182824
 20
367.3331872104147
 30
0.0
 40
3.0
  0
CIRCLE
  5
12E
330
71
100
AcDbEntity
  8
Visible (ANSI)
100
AcDbCircle
 10
365.0731631348992
 20
367.2998602843348
 30
0.0
 40
1.84
  0
CIRCLE
  5
12F
330
71
100
AcDbEntity
  8
Visible (ANSI)
100
AcDbCircle
 10
365.0731631348992
 20
367.2998602843348
 30
0.0
 40
2.84
  0
CIRCLE
  5
130
330
71
100
AcDbEntity
  8
Visible (ANSI)
100
AcDbCircle
 10
365.0731631348992
 20
367.2998602843348
 30
0.0
 40
5.0
  0
SPLINE
  5
131
330
71
100
AcDbEntity
  8
Visible (ANSI)
100
AcDbSpline
210
0.0
220
0.0
230
1.0
 70
     8
 71
     2
 72
     7
 73
     4
 74
     0
 42
0.000000001
 43
0.0000000001
 40
0.0
 40
0.0
 40
0.0
 40
1.0
 40
2.0
 40
2.0
 40
2.0
 10
461.6123611317831
 20
350.0355352937029
 30
0.0
 10
461.6123611317831
 20
350.6726781399954
 30
0.0
 10
461.3637897074449
 20
351.2126781307992
 30
0.0
 10
461.0723611409794
 20
351.2126781307992
 30
0.0
  0
SPLINE
  5
132
330
71
100
AcDbEntity
  8
Visible (ANSI)
100
AcDbSpline
210
0.0
220
0.0
230
1.0
 70
     8
 71
     2
 72
     7
 73
     4
 74
     0
 42
0.000000001
 43
0.0000000001
 40
0.0
 40
0.0
 40
0.0
 40
1.0
 40
2.0
 40
2.0
 40
2.0
 10
461.0723611409794
 20
351.2126781307992
 30
0.0
 10
460.7809325745138
 20
351.2126781307992
 30
0.0
 10
460.5323611501754
 20
350.6726781399954
 30
0.0
 10
460.5323611501754
 20
350.0326781508945
 30
0.0
  0
SPLINE
  5
133
330
71
100
AcDbEntity
  8
Visible (ANSI)
100
AcDbSpline
210
0.0
220
0.0
230
1.0
 70
     8
 71
     2
 72
     7
 73
     4
 74
     0
 42
0.000000001
 43
0.0000000001
 40
0.0
 40
0.0
 40
0.0
 40
1.0
 40
2.0
 40
2.0
 40
2.0
 10
460.5323611501754
 20
350.0326781508945
 30
0.0
 10
460.5323611501754
 20
349.4069638758361
 30
0.0
 10
460.7866468601307
 20
348.8555353137983
 30
0.0
 10
461.0723611409794
 20
348.8555353137983
 30
0.0
  0
SPLINE
  5
134
330
71
100
AcDbEntity
  8
Visible (ANSI)
100
AcDbSpline
210
0.0
220
0.0
230
1.0
 70
     8
 71
     2
 72
     7
 73
     4
 74
     0
 42
0.000000001
 43
0.0000000001
 40
0.0
 40
0.0
 40
0.0
 40
1.0
 40
2.0
 40
2.0
 40
2.0
 10
461.0723611409794
 20
348.8555353137983
 30
0.0
 10
461.3580754218279
 20
348.8555353137983
 30
0.0
 10
461.6123611317831
 20
349.4069638758361
 30
0.0
 10
461.6123611317831
 20
350.0355352937029
 30
0.0
  0
SPLINE
  5
135
330
71
100
AcDbEntity
  8
Visible (ANSI)
100
AcDbSpline
210
0.0
220
0.0
230
1.0
 70
     8
 71
     2
 72
     7
 73
     4
 74
     0
 42
0.000000001
 43
0.0000000001
 40
0.0
 40
0.0
 40
0.0
 40
1.0
 40
2.0
 40
2.0
 40
2.0
 10
462.5209325448817
 20
350.0355352937029
 30
0.0
 10
462.5209325448817
 20
349.5926781583876
 30
0.0
 10
462.3609325476065
 20
348.8955353131171
 30
0.0
 10
462.1923611219058
 20
348.6698210312466
 30
0.0
  0
SPLINE
  5
136
330
71
100
AcDbEntity
  8
Visible (ANSI)
100
AcDbSpline
210
0.0
220
0.0
230
1.0
 70
     8
 71
     2
 72
     7
 73
     4
 74
     0
 42
0.000000001
 43
0.0000000001
 40
0.0
 40
0.0
 40
0.0
 40
1.0
 40
2.0
 40
2.0
 40
2.0
 10
462.1952182647143
 20
351.3841066993084
 30
0.0
 10
462.3666468332235
 20
351.1555352746295
 30
0.0
 10
462.5209325448817
 20
350.4783924290183
 30
0.0
 10
462.5209325448817
 20
350.0355352937029
 30
0.0
  0
SPLINE
  5
137
330
71
100
AcDbEntity
  8
Visible (ANSI)
100
AcDbSpline
210
0.0
220
0.0
230
1.0
 70
     8
 71
     2
 72
     7
 73
     4
 74
     0
 42
0.000000001
 43
0.0000000001
 40
0.0
 40
0.0
 40
0.0
 40
1.0
 40
2.0
 40
2.0
 40
2.0
 10
461.0723611409794
 20
351.858392405517
 30
0.0
 10
461.4752182769758
 20
351.858392405517
 30
0.0
 10
462.0209325533966
 20
351.6212495524127
 30
0.0
 10
462.1952182647143
 20
351.3841066993084
 30
0.0
  0
SPLINE
  5
138
330
71
100
AcDbEntity
  8
Visible (ANSI)
100
AcDbSpline
210
0.0
220
0.0
230
1.0
 70
     8
 71
     2
 72
     7
 73
     4
 74
     0
 42
0.000000001
 43
0.0000000001
 40
0.0
 40
0.0
 40
0.0
 40
1.0
 40
2.0
 40
2.0
 40
2.0
 10
459.9580754456698
 20
351.3983924133508
 30
0.0
 10
460.1323611569874
 20
351.6269638380297
 30
0.0
 10
460.6866468618338
 20
351.858392405517
 30
0.0
 10
461.0723611409794
 20
351.858392405517
 30
0.0
  0
SPLINE
  5
139
330
71
100
AcDbEntity
  8
Visible (ANSI)
100
AcDbSpline
210
0.0
220
0.0
230
1.0
 70
     8
 71
     2
 72
     7
 73
     4
 74
     0
 42
0.000000001
 43
0.0000000001
 40
0.0
 40
0.0
 40
0.0
 40
1.0
 40
2.0
 40
2.0
 40
2.0
 10
459.6237897370769
 20
350.0355352937029
 30
0.0
 10
459.6237897370769
 20
350.4898210002523
 30
0.0
 10
459.7837897343522
 20
351.1641067030549
 30
0.0
 10
459.9580754456698
 20
351.3983924133508
 30
0.0
  0
SPLINE
  5
13A
330
71
100
AcDbEntity
  8
Visible (ANSI)
100
AcDbSpline
210
0.0
220
0.0
230
1.0
 70
     8
 71
     2
 72
     7
 73
     4
 74
     0
 42
0.000000001
 43
0.0000000001
 40
0.0
 40
0.0
 40
0.0
 40
1.0
 40
2.0
 40
2.0
 40
2.0
 10
459.9523611600528
 20
348.6755353168636
 30
0.0
 10
459.7780754487351
 20
348.9069638843511
 30
0.0
 10
459.6237897370769
 20
349.5926781583876
 30
0.0
 10
459.6237897370769
 20
350.0355352937029
 30
0.0
  0
SPLINE
  5
13B
330
71
100
AcDbEntity
  8
Visible (ANSI)
100
AcDbSpline
210
0.0
220
0.0
230
1.0
 70
     8
 71
     2
 72
     7
 73
     4
 74
     0
 42
0.000000001
 43
0.0000000001
 40
0.0
 40
0.0
 40
0.0
 40
1.0
 40
2.0
 40
2.0
 40
2.0
 10
461.0723611409794
 20
348.2098210390804
 30
0.0
 10
460.6809325762167
 20
348.2098210390804
 30
0.0
 10
460.123789728562
 20
348.4441067493762
 30
0.0
 10
459.9523611600528
 20
348.6755353168636
 30
0.0
  0
SPLINE
  5
13C
330
71
100
AcDbEntity
  8
Visible (ANSI)
100
AcDbSpline
210
0.0
220
0.0
230
1.0
 70
     8
 71
     2
 72
     7
 73
     4
 74
     0
 42
0.000000001
 43
0.0000000001
 40
0.0
 40
0.0
 40
0.0
 40
1.0
 40
2.0
 40
2.0
 40
2.0
 10
462.1923611219058
 20
348.6698210312466
 30
0.0
 10
462.0180754105882
 20
348.4441067493762
 30
0.0
 10
461.4723611341673
 20
348.2098210390804
 30
0.0
 10
461.0723611409794
 20
348.2098210390804
 30
0.0
  0
LINE
  5
13D
330
71
100
AcDbEntity
  8
Visible (ANSI)
100
AcDbLine
 10
458.9009326065299
 20
348.2841067521011
 30
0.0
 11
456.5637897891884
 21
348.2841067521011
 31
0.0
  0
LINE
  5
13E
330
71
100
AcDbEntity
  8
Visible (ANSI)
100
AcDbLine
 10
458.9009326065299
 20
348.8955353131171
 30
0.0
 11
458.9009326065299
 21
348.2841067521011
 31
0.0
  0
LINE
  5
13F
330
71
100
AcDbEntity
  8
Visible (ANSI)
100
AcDbLine
 10
458.178075475983
 20
348.8955353131171
 30
0.0
 11
458.9009326065299
 21
348.8955353131171
 31
0.0
  0
LINE
  5
140
330
71
100
AcDbEntity
  8
Visible (ANSI)
100
AcDbLine
 10
458.178075475983
 20
351.7926781209218
 30
0.0
 11
458.178075475983
 21
348.8955353131171
 31
0.0
  0
LINE
  5
141
330
71
100
AcDbEntity
  8
Visible (ANSI)
100
AcDbLine
 10
457.4009326320748
 20
351.7926781209218
 30
0.0
 11
458.178075475983
 21
351.7926781209218
 31
0.0
  0
SPLINE
  5
142
330
71
100
AcDbEntity
  8
Visible (ANSI)
100
AcDbSpline
210
0.0
220
0.0
230
1.0
 70
     8
 71
     2
 72
     7
 73
     4
 74
     0
 42
0.000000001
 43
0.0000000001
 40
0.0
 40
0.0
 40
0.0
 40
1.0
 40
2.0
 40
2.0
 40
2.0
 10
457.1466469221196
 20
351.4041066989677
 30
0.0
 10
457.2695040628844
 20
351.464106697946
 30
0.0
 10
457.3895040608408
 20
351.652678123306
 30
0.0
 10
457.4009326320748
 20
351.7926781209218
 30
0.0
  0
SPLINE
  5
143
330
71
100
AcDbEntity
  8
Visible (ANSI)
100
AcDbSpline
210
0.0
220
0.0
230
1.0
 70
     8
 71
     2
 72
     7
 73
     4
 74
     0
 42
0.000000001
 43
0.0000000001
 40
0.0
 40
0.0
 40
0.0
 40
1.0
 40
2.0
 40
2.0
 40
2.0
 10
456.5637897891884
 20
351.3155352719047
 30
0.0
 10
456.7323612148891
 20
351.3155352719047
 30
0.0
 10
457.043789781014
 20
351.3555352712235
 30
0.0
 10
457.1466469221196
 20
351.4041066989677
 30
0.0
  0
LINE
  5
144
330
71
100
AcDbEntity
  8
Visible (ANSI)
100
AcDbLine
 10
456.5637897891884
 20
350.7441067102075
 30
0.0
 11
456.5637897891884
 21
351.3155352719047
 31
0.0
  0
LINE
  5
145
330
71
100
AcDbEntity
  8
Visible (ANSI)
100
AcDbLine
 10
457.3009326337778
 20
350.7441067102075
 30
0.0
 11
456.5637897891884
 21
350.7441067102075
 31
0.0
  0
LINE
  5
146
330
71
100
AcDbEntity
  8
Visible (ANSI)
100
AcDbLine
 10
457.3009326337778
 20
348.8955353131171
 30
0.0
 11
457.3009326337778
 21
350.7441067102075
 31
0.0
  0
LINE
  5
147
330
71
100
AcDbEntity
  8
Visible (ANSI)
100
AcDbLine
 10
456.5637897891884
 20
348.8955353131171
 30
0.0
 11
457.3009326337778
 21
348.8955353131171
 31
0.0
  0
LINE
  5
148
330
71
100
AcDbEntity
  8
Visible (ANSI)
100
AcDbLine
 10
456.5637897891884
 20
348.2841067521011
 30
0.0
 11
456.5637897891884
 21
348.8955353131171
 31
0.0
  0
LINE
  5
149
330
71
100
AcDbEntity
  8
Visible (ANSI)
100
AcDbLine
 10
462.5328062790963
 20
381.3441796365177
 30
0.0
 11
467.7078062790963
 21
381.3441796365177
 31
0.0
  0
LINE
  5
14A
330
71
100
AcDbEntity
  8
Visible (ANSI)
100
AcDbLine
 10
467.7078062790963
 20
381.3441796365177
 30
0.0
 11
467.7078062790963
 21
350.4441796365177
 31
0.0
  0
LINE
  5
14B
330
71
100
AcDbEntity
  8
Visible (ANSI)
100
AcDbLine
 10
462.5328062790963
 20
350.4441796365177
 30
0.0
 11
467.7078062790963
 21
350.4441796365177
 31
0.0
  0
LINE
  5
14C
330
71
100
AcDbEntity
  8
Visible (ANSI)
100
AcDbLine
 10
456.1728062790963
 20
350.4441796365177
 30
0.0
 11
450.9978062790962
 21
350.4441796365177
 31
0.0
  0
LINE
  5
14D
330
71
100
AcDbEntity
  8
Visible (ANSI)
100
AcDbLine
 10
450.9978062790962
 20
350.4441796365177
 30
0.0
 11
450.9978062790962
 21
381.3441796365177
 31
0.0
  0
LINE
  5
14E
330
71
100
AcDbEntity
  8
Visible (ANSI)
100
AcDbLine
 10
456.1728062790963
 20
381.3441796365177
 30
0.0
 11
450.9978062790962
 21
381.3441796365177
 31
0.0
  0
LINE
  5
14F
330
71
100
AcDbEntity
  8
Visible (ANSI)
100
AcDbLine
 10
474.7078062790962
 20
346.6441796365177
 30
0.0
 11
474.7078062790962
 21
385.1441796365177
 31
0.0
  0
ARC
  5
150
330
71
100
AcDbEntity
  8
Visible (ANSI)
100
AcDbCircle
 10
471.6827410605618
 20
385.1191144179833
 30
0.0
 40
3.025169059997625
100
AcDbArc
 50
0.47473302763367
 51
89.52526697236635
  0
LINE
  5
151
330
71
100
AcDbEntity
  8
Visible (ANSI)
100
AcDbLine
 10
471.7078062790963
 20
388.1441796365177
 30
0.0
 11
446.9978062790963
 21
388.1441796365177
 31
0.0
  0
ARC
  5
152
330
71
100
AcDbEntity
  8
Visible (ANSI)
100
AcDbCircle
 10
447.0228714976307
 20
385.1191144179833
 30
0.0
 40
3.025169059997618
100
AcDbArc
 50
90.47473302763362
 51
179.5252669723663
  0
ARC
  5
153
330
71
100
AcDbEntity
  8
Visible (ANSI)
100
AcDbCircle
 10
471.682741060562
 20
346.6692448550521
 30
0.0
 40
3.025169059997613
100
AcDbArc
 50
270.4747330276337
 51
359.5252669723663
  0
LINE
  5
154
330
71
100
AcDbEntity
  8
Visible (ANSI)
100
AcDbLine
 10
443.9978062790963
 20
385.1441796365177
 30
0.0
 11
443.9978062790963
 21
346.6441796365177
 31
0.0
  0
ARC
  5
155
330
71
100
AcDbEntity
  8
Visible (ANSI)
100
AcDbCircle
 10
447.0228714976307
 20
346.6692448550521
 30
0.0
 40
3.02516905999762
100
AcDbArc
 50
180.4747330276336
 51
269.5252669723664
  0
LINE
  5
156
330
71
100
AcDbEntity
  8
Visible (ANSI)
100
AcDbLine
 10
446.9978062790963
 20
343.6441796365177
 30
0.0
 11
471.7078062790963
 21
343.6441796365177
 31
0.0
  0
LINE
  5
157
330
71
100
AcDbEntity
  8
Visible (ANSI)
100
AcDbLine
 10
464.0328062790963
 20
376.3441796365177
 30
0.0
 11
464.0328062790963
 21
381.3441796365177
 31
0.0
  0
SPLINE
  5
158
330
71
100
AcDbEntity
  8
Visible (ANSI)
100
AcDbSpline
210
0.0
220
0.0
230
1.0
 70
     8
 71
     3
 72
    18
 73
    14
 74
     0
 42
0.000000001
 43
0.0000000001
 40
-0.2395303510179429
 40
-0.2395303510179429
 40
-0.2395303510179429
 40
-0.2395303510179429
 40
-0.238876953428406
 40
-0.238876953428406
 40
-0.2066924437879905
 40
-0.2066924437879905
 40
-0.1746159102619629
 40
-0.1746159102619629
 40
-0.1152711904468403
 40
-0.1152711904468403
 40
-0.057320569370717
 40
-0.057320569370717
 40
0.0
 40
0.0
 40
0.0
 40
0.0
 10
462.5328062790963
 20
376.7020897034916
 30
0.0
 10
462.5349152696844
 20
376.7015362447779
 30
0.0
 10
462.537024321337
 20
376.7009830263731
 30
0.0
 10
462.6430216314136
 20
376.6731920689931
 30
0.0
 10
462.7467884998906
 20
376.6466104898723
 30
0.0
 10
462.9503681651229
 20
376.595497403909
 30
0.0
 10
463.049712063247
 20
376.5710784686855
 30
0.0
 10
463.3216443990587
 20
376.5053640302654
 30
0.0
 10
463.4822293454373
 20
376.4679590860338
 30
0.0
 10
463.7491766899446
 20
376.4069276908248
 30
0.0
 10
463.8540930831748
 20
376.3835758932481
 30
0.0
 10
463.9962970087702
 20
376.3521238375956
 30
0.0
 10
464.0328062790962
 20
376.3441796365177
 30
0.0
 10
464.0328062790962
 20
376.3441796365177
 30
0.0
  0
SPLINE
  5
159
330
71
100
AcDbEntity
  8
Visible (ANSI)
100
AcDbSpline
210
0.0
220
0.0
230
1.0
 70
     8
 71
     3
 72
    18
 73
    14
 74
     0
 42
0.000000001
 43
0.0000000001
 40
-0.0006541209416819
 40
-0.0006541209416819
 40
-0.0006541209416819
 40
-0.0006541209416819
 40
0.0
 40
0.0
 40
0.0322201399127554
 40
0.0322201399127554
 40
0.0643321841748277
 40
0.0643321841748277
 40
0.1237426023198299
 40
0.1237426023198299
 40
0.181757378371022
 40
0.181757378371022
 40
0.2391414052100212
 40
0.2391414052100212
 40
0.2391414052100212
 40
0.2391414052100212
 10
456.1728062790963
 20
376.7020897034916
 30
0.0
 10
456.1706972885082
 20
376.7015362447779
 30
0.0
 10
456.1685882368556
 20
376.7009830263731
 30
0.0
 10
456.0625909267782
 20
376.673192068993
 30
0.0
 10
455.9588240583019
 20
376.6466104898723
 30
0.0
 10
455.7552443930697
 20
376.595497403909
 30
0.0
 10
455.6559004949455
 20
376.5710784686855
 30
0.0
 10
455.3839681591339
 20
376.5053640302654
 30
0.0
 10
455.2233832127553
 20
376.4679590860338
 30
0.0
 10
454.956435868248
 20
376.4069276908248
 30
0.0
 10
454.8515194750178
 20
376.3835758932481
 30
0.0
 10
454.7093155494224
 20
376.3521238375956
 30
0.0
 10
454.6728062790964
 20
376.3441796365177
 30
0.0
 10
454.6728062790964
 20
376.3441796365177
 30
0.0
  0
ARC
  5
15A
330
71
100
AcDbEntity
  8
Visible (ANSI)
100
AcDbCircle
 10
459.3528062790963
 20
378.4945796365178
 30
0.0
 40
5.150399999999997
100
AcDbArc
 50
204.6781745566527
 51
335.3218254433483
  0
LINE
  5
15B
330
71
100
AcDbEntity
  8
Visible (ANSI)
100
AcDbLine
 10
454.6728062790963
 20
381.3441796365177
 30
0.0
 11
454.6728062790963
 21
376.3441796365177
 31
0.0
  0
LINE
  5
15C
330
71
100
AcDbEntity
  8
Visible (ANSI)
100
AcDbLine
 10
464.0328062790963
 20
350.4441796365177
 30
0.0
 11
464.0328062790963
 21
355.4441796365177
 31
0.0
  0
ARC
  5
15D
330
71
100
AcDbEntity
  8
Visible (ANSI)
100
AcDbCircle
 10
459.3528062790963
 20
353.2937796365177
 30
0.0
 40
5.150399999999995
100
AcDbArc
 50
24.67817455665274
 51
155.321825443348
  0
LINE
  5
15E
330
71
100
AcDbEntity
  8
Visible (ANSI)
100
AcDbLine
 10
454.6728062790963
 20
355.4441796365177
 30
0.0
 11
454.6728062790963
 21
350.4441796365177
 31
0.0
  0
SPLINE
  5
15F
330
71
100
AcDbEntity
  8
Visible (ANSI)
100
AcDbSpline
210
0.0
220
0.0
230
1.0
 70
     8
 71
     3
 72
    18
 73
    14
 74
     0
 42
0.000000001
 43
0.0000000001
 40
-0.2395303510243322
 40
-0.2395303510243322
 40
-0.2395303510243322
 40
-0.2395303510243322
 40
-0.2388769534359081
 40
-0.2388769534359081
 40
-0.2066924437879999
 40
-0.2066924437879999
 40
-0.1746159102619627
 40
-0.1746159102619627
 40
-0.1152711904468403
 40
-0.1152711904468403
 40
-0.0573205693707171
 40
-0.0573205693707171
 40
0.0
 40
0.0
 40
0.0
 40
0.0
 10
456.1728062790963
 20
355.0862695695438
 30
0.0
 10
456.170697288515
 20
355.0868230282557
 30
0.0
 10
456.1685882368488
 20
355.0873762466633
 30
0.0
 10
456.0625909269091
 20
355.1151672040163
 30
0.0
 10
455.9588240583258
 20
355.1417487831571
 30
0.0
 10
455.7552443930697
 20
355.1928618691264
 30
0.0
 10
455.6559004949456
 20
355.2172808043498
 30
0.0
 10
455.3839681591339
 20
355.28299524277
 30
0.0
 10
455.2233832127553
 20
355.3204001870016
 30
0.0
 10
454.956435868248
 20
355.3814315822105
 30
0.0
 10
454.8515194750178
 20
355.4047833797873
 30
0.0
 10
454.7093155494224
 20
355.4362354354397
 30
0.0
 10
454.6728062790964
 20
355.4441796365177
 30
0.0
 10
454.6728062790964
 20
355.4441796365177
 30
0.0
  0
SPLINE
  5
160
330
71
100
AcDbEntity
  8
Visible (ANSI)
100
AcDbSpline
210
0.0
220
0.0
230
1.0
 70
     8
 71
     3
 72
    18
 73
    14
 74
     0
 42
0.000000001
 43
0.0000000001
 40
-0.0006541209416791
 40
-0.0006541209416791
 40
-0.0006541209416791
 40
-0.0006541209416791
 40
0.0
 40
0.0
 40
0.0322201399126515
 40
0.0322201399126515
 40
0.0643321841745992
 40
0.0643321841745992
 40
0.1237426023193685
 40
0.1237426023193685
 40
0.1817573783703333
 40
0.1817573783703333
 40
0.2391414052091095
 40
0.2391414052091095
 40
0.2391414052091095
 40
0.2391414052091095
 10
462.5328062790963
 20
355.0862695695438
 30
0.0
 10
462.5349152696844
 20
355.0868230282575
 30
0.0
 10
462.537024321337
 20
355.0873762466622
 30
0.0
 10
462.6430216314139
 20
355.1151672040423
 30
0.0
 10
462.7467884998907
 20
355.1417487831631
 30
0.0
 10
462.9503681651229
 20
355.1928618691264
 30
0.0
 10
463.049712063247
 20
355.2172808043498
 30
0.0
 10
463.3216443990587
 20
355.28299524277
 30
0.0
 10
463.4822293454373
 20
355.3204001870016
 30
0.0
 10
463.7491766899446
 20
355.3814315822105
 30
0.0
 10
463.8540930831748
 20
355.4047833797873
 30
0.0
 10
463.9962970087702
 20
355.4362354354397
 30
0.0
 10
464.0328062790962
 20
355.4441796365177
 30
0.0
 10
464.0328062790962
 20
355.4441796365177
 30
0.0
  0
LINE
  5
161
330
71
100
AcDbEntity
  8
Visible (ANSI)
100
AcDbLine
 10
121.7889203183053
 20
275.5268150701099
 30
0.0
 11
119.4517775009637
 21
275.5268150701099
 31
0.0
  0
LINE
  5
162
330
71
100
AcDbEntity
  8
Visible (ANSI)
100
AcDbLine
 10
121.7889203183053
 20
276.1382436311259
 30
0.0
 11
121.7889203183053
 21
275.5268150701099
 31
0.0
  0
LINE
  5
163
330
71
100
AcDbEntity
  8
Visible (ANSI)
100
AcDbLine
 10
121.0660631877583
 20
276.1382436311259
 30
0.0
 11
121.7889203183053
 21
276.1382436311259
 31
0.0
  0
LINE
  5
164
330
71
100
AcDbEntity
  8
Visible (ANSI)
100
AcDbLine
 10
121.0660631877583
 20
279.0353864389307
 30
0.0
 11
121.0660631877583
 21
276.1382436311259
 31
0.0
  0
LINE
  5
165
330
71
100
AcDbEntity
  8
Visible (ANSI)
100
AcDbLine
 10
120.2889203438501
 20
279.0353864389307
 30
0.0
 11
121.0660631877583
 21
279.0353864389307
 31
0.0
  0
SPLINE
  5
166
330
71
100
AcDbEntity
  8
Visible (ANSI)
100
AcDbSpline
210
0.0
220
0.0
230
1.0
 70
     8
 71
     2
 72
     7
 73
     4
 74
     0
 42
0.000000001
 43
0.0000000001
 40
0.0
 40
0.0
 40
0.0
 40
1.0
 40
2.0
 40
2.0
 40
2.0
 10
120.0346346338948
 20
278.6468150169766
 30
0.0
 10
120.1574917746597
 20
278.7068150159548
 30
0.0
 10
120.2774917726162
 20
278.8953864413149
 30
0.0
 10
120.2889203438501
 20
279.0353864389307
 30
0.0
  0
SPLINE
  5
167
330
71
100
AcDbEntity
  8
Visible (ANSI)
100
AcDbSpline
210
0.0
220
0.0
230
1.0
 70
     8
 71
     2
 72
     7
 73
     4
 74
     0
 42
0.000000001
 43
0.0000000001
 40
0.0
 40
0.0
 40
0.0
 40
1.0
 40
2.0
 40
2.0
 40
2.0
 10
119.4517775009637
 20
278.5582435899136
 30
0.0
 10
119.6203489266644
 20
278.5582435899136
 30
0.0
 10
119.9317774927894
 20
278.5982435892323
 30
0.0
 10
120.0346346338948
 20
278.6468150169766
 30
0.0
  0
LINE
  5
168
330
71
100
AcDbEntity
  8
Visible (ANSI)
100
AcDbLine
 10
119.4517775009637
 20
277.9868150282163
 30
0.0
 11
119.4517775009637
 21
278.5582435899136
 31
0.0
  0
LINE
  5
169
330
71
100
AcDbEntity
  8
Visible (ANSI)
100
AcDbLine
 10
120.1889203455531
 20
277.9868150282163
 30
0.0
 11
119.4517775009637
 21
277.9868150282163
 31
0.0
  0
LINE
  5
16A
330
71
100
AcDbEntity
  8
Visible (ANSI)
100
AcDbLine
 10
120.1889203455531
 20
276.1382436311259
 30
0.0
 11
120.1889203455531
 21
277.9868150282163
 31
0.0
  0
LINE
  5
16B
330
71
100
AcDbEntity
  8
Visible (ANSI)
100
AcDbLine
 10
119.4517775009637
 20
276.1382436311259
 30
0.0
 11
120.1889203455531
 21
276.1382436311259
 31
0.0
  0
LINE
  5
16C
330
71
100
AcDbEntity
  8
Visible (ANSI)
100
AcDbLine
 10
119.4517775009637
 20
275.5268150701099
 30
0.0
 11
119.4517775009637
 21
276.1382436311259
 31
0.0
  0
SPLINE
  5
16D
330
71
100
AcDbEntity
  8
Visible (ANSI)
100
AcDbSpline
210
0.0
220
0.0
230
1.0
 70
    28
 71
     2
 72
     6
 73
     3
 74
     0
 42
0.000000001
 43
0.0000000001
 40
0.0
 40
0.0
 40
0.0
 40
0.0053549647427569
 40
0.0053549647427569
 40
0.0053549647427569
 10
125.1288558375115
 20
276.1382436311259
 30
0.0
 41
1.0
 10
125.1711841115326
 20
276.1382436311259
 30
0.0
 41
1.013821989126576
 10
125.2117774028715
 20
276.1382436311259
 30
0.0
 41
1.027178646285174
  0
LINE
  5
16E
330
71
100
AcDbEntity
  8
Visible (ANSI)
100
AcDbLine
 10
124.4889202723245
 20
276.1382436311259
 30
0.0
 11
125.1288558375115
 21
276.1382436311259
 31
0.0
  0
SPLINE
  5
16F
330
71
100
AcDbEntity
  8
Visible (ANSI)
100
AcDbSpline
210
0.0
220
0.0
230
1.0
 70
    28
 71
     2
 72
     6
 73
     3
 74
     0
 42
0.000000001
 43
0.0000000001
 40
0.2091287848385316
 40
0.2091287848385316
 40
0.2091287848385316
 40
0.2190379856915894
 40
0.2190379856915894
 40
0.2190379856915894
 10
125.2117774028715
 20
276.1382436311259
 30
0.0
 41
1.023485820934709
 10
125.2117774028715
 20
276.0818251170332
 30
0.0
 41
1.012299327693755
 10
125.2117774028715
 20
276.0229952403319
 30
0.0
 41
1.0
  0
LINE
  5
170
330
71
100
AcDbEntity
  8
Visible (ANSI)
100
AcDbLine
 10
125.2117774028715
 20
276.0229952403319
 30
0.0
 11
125.2117774028715
 21
275.5268150701099
 31
0.0
  0
LINE
  5
171
330
71
100
AcDbEntity
  8
Visible (ANSI)
100
AcDbLine
 10
125.2117774028715
 20
275.5268150701099
 30
0.0
 11
122.8746345855299
 21
275.5268150701099
 31
0.0
  0
LINE
  5
172
330
71
100
AcDbEntity
  8
Visible (ANSI)
100
AcDbLine
 10
124.4889202723245
 20
279.0353864389307
 30
0.0
 11
124.4889202723245
 21
276.1382436311259
 31
0.0
  0
LINE
  5
173
330
71
100
AcDbEntity
  8
Visible (ANSI)
100
AcDbLine
 10
123.7117774284163
 20
279.0353864389307
 30
0.0
 11
124.4889202723245
 21
279.0353864389307
 31
0.0
  0
SPLINE
  5
174
330
71
100
AcDbEntity
  8
Visible (ANSI)
100
AcDbSpline
210
0.0
220
0.0
230
1.0
 70
     8
 71
     2
 72
     7
 73
     4
 74
     0
 42
0.000000001
 43
0.0000000001
 40
0.0
 40
0.0
 40
0.0
 40
1.0
 40
2.0
 40
2.0
 40
2.0
 10
123.4574917184611
 20
278.6468150169766
 30
0.0
 10
123.580348859226
 20
278.7068150159548
 30
0.0
 10
123.7003488571824
 20
278.8953864413149
 30
0.0
 10
123.7117774284163
 20
279.0353864389307
 30
0.0
  0
SPLINE
  5
175
330
71
100
AcDbEntity
  8
Visible (ANSI)
100
AcDbSpline
210
0.0
220
0.0
230
1.0
 70
     8
 71
     2
 72
     7
 73
     4
 74
     0
 42
0.000000001
 43
0.0000000001
 40
0.0
 40
0.0
 40
0.0
 40
1.0
 40
2.0
 40
2.0
 40
2.0
 10
122.8746345855299
 20
278.5582435899136
 30
0.0
 10
123.0432060112306
 20
278.5582435899136
 30
0.0
 10
123.3546345773556
 20
278.5982435892323
 30
0.0
 10
123.4574917184611
 20
278.6468150169766
 30
0.0
  0
LINE
  5
176
330
71
100
AcDbEntity
  8
Visible (ANSI)
100
AcDbLine
 10
122.8746345855299
 20
277.9868150282163
 30
0.0
 11
122.8746345855299
 21
278.5582435899136
 31
0.0
  0
LINE
  5
177
330
71
100
AcDbEntity
  8
Visible (ANSI)
100
AcDbLine
 10
123.6117774301193
 20
277.9868150282163
 30
0.0
 11
122.8746345855299
 21
277.9868150282163
 31
0.0
  0
LINE
  5
178
330
71
100
AcDbEntity
  8
Visible (ANSI)
100
AcDbLine
 10
123.6117774301193
 20
276.1382436311259
 30
0.0
 11
123.6117774301193
 21
277.9868150282163
 31
0.0
  0
LINE
  5
179
330
71
100
AcDbEntity
  8
Visible (ANSI)
100
AcDbLine
 10
122.8746345855299
 20
276.1382436311259
 30
0.0
 11
123.6117774301193
 21
276.1382436311259
 31
0.0
  0
LINE
  5
17A
330
71
100
AcDbEntity
  8
Visible (ANSI)
100
AcDbLine
 10
122.8746345855299
 20
275.5268150701099
 30
0.0
 11
122.8746345855299
 21
276.1382436311259
 31
0.0
  0
ARC
  5
17B
330
71
100
AcDbEntity
  8
Visible (ANSI)
100
AcDbCircle
 10
126.5287353194698
 20
277.0580057938573
 30
0.0
 40
1.674999999999999
100
AcDbArc
 50
218.1641634900325
 51
0.0
  0
ARC
  5
17C
330
71
100
AcDbEntity
  8
Visible (ANSI)
100
AcDbCircle
 10
126.5287353194698
 20
277.0580057938573
 30
0.0
 40
1.675
100
AcDbArc
 50
0.0
 51
213.3060958699298
  0
CIRCLE
  5
17D
330
71
100
AcDbEntity
  8
Visible (ANSI)
100
AcDbCircle
 10
126.5287353194698
 20
277.0580057938573
 30
0.0
 40
0.6750000000000002
  0
CIRCLE
  5
17E
330
71
100
AcDbEntity
  8
Visible (ANSI)
100
AcDbCircle
 10
145.2287353194698
 20
277.0580057938573
 30
0.0
 40
0.6750000000000002
  0
CIRCLE
  5
17F
330
71
100
AcDbEntity
  8
Visible (ANSI)
100
AcDbCircle
 10
141.8787353194698
 20
277.0580057938573
 30
0.0
 40
0.6750000000000002
  0
CIRCLE
  5
180
330
71
100
AcDbEntity
  8
Visible (ANSI)
100
AcDbCircle
 10
135.8787353194698
 20
277.0580057938573
 30
0.0
 40
1.75
  0
CIRCLE
  5
181
330
71
100
AcDbEntity
  8
Visible (ANSI)
100
AcDbCircle
 10
129.8787353194698
 20
277.0580057938573
 30
0.0
 40
0.6750000000000002
  0
CIRCLE
  5
182
330
71
100
AcDbEntity
  8
Visible (ANSI)
100
AcDbCircle
 10
145.2287353194698
 20
277.0580057938573
 30
0.0
 40
1.674999999999996
  0
CIRCLE
  5
183
330
71
100
AcDbEntity
  8
Visible (ANSI)
100
AcDbCircle
 10
129.8787353194698
 20
277.0580057938573
 30
0.0
 40
1.674999999999996
  0
CIRCLE
  5
184
330
71
100
AcDbEntity
  8
Visible (ANSI)
100
AcDbCircle
 10
141.8787353194698
 20
277.0580057938573
 30
0.0
 40
1.674999999999996
  0
CIRCLE
  5
185
330
71
100
AcDbEntity
  8
Visible (ANSI)
100
AcDbCircle
 10
135.8787353194698
 20
277.0580057938573
 30
0.0
 40
2.749999999999997
  0
ARC
  5
186
330
71
100
AcDbEntity
  8
Hidden (ANSI)
 48
0.2704088985919952
100
AcDbCircle
 10
126.5287353194707
 20
277.058005793858
 30
0.0
 40
1.675000000001186
100
AcDbArc
 50
213.3060958699331
 51
218.1641634900313
  0
LINE
  5
187
330
71
100
AcDbEntity
  8
Visible (ANSI)
100
AcDbLine
 10
95.8787353194698
 20
262.1580057938573
 30
0.0
 11
95.8787353194698
 21
267.4080057938573
 31
0.0
  0
LINE
  5
188
330
71
100
AcDbEntity
  8
Visible (ANSI)
100
AcDbLine
 10
65.87873531946981
 20
262.1580057938573
 30
0.0
 11
65.87873531946981
 21
267.4080057938573
 31
0.0
  0
LINE
  5
189
330
71
100
AcDbEntity
  8
Visible (ANSI)
100
AcDbLine
 10
65.87873531946981
 20
262.1580057938573
 30
0.0
 11
72.87873531946981
 21
262.1580057938573
 31
0.0
  0
LINE
  5
18A
330
71
100
AcDbEntity
  8
Visible (ANSI)
100
AcDbLine
 10
72.87873531946981
 20
262.1580057938573
 30
0.0
 11
72.87873531946981
 21
265.4080057938573
 31
0.0
  0
LINE
  5
18B
330
71
100
AcDbEntity
  8
Visible (ANSI)
100
AcDbLine
 10
72.87873531946981
 20
265.4080057938573
 30
0.0
 11
88.87873531946981
 21
265.4080057938573
 31
0.0
  0
LINE
  5
18C
330
71
100
AcDbEntity
  8
Visible (ANSI)
100
AcDbLine
 10
88.87873531946981
 20
265.4080057938573
 30
0.0
 11
88.87873531946981
 21
262.1580057938573
 31
0.0
  0
LINE
  5
18D
330
71
100
AcDbEntity
  8
Visible (ANSI)
100
AcDbLine
 10
88.87873531946981
 20
262.1580057938573
 30
0.0
 11
95.8787353194698
 21
262.1580057938573
 31
0.0
  0
ARC
  5
18E
330
71
100
AcDbEntity
  8
Visible (ANSI)
100
AcDbCircle
 10
102.8787353194698
 20
287.7999890686663
 30
0.0
 40
2.999999999999996
100
AcDbArc
 50
0.0
 51
110.9139993567129
  0
LINE
  5
18F
330
71
100
AcDbEntity
  8
Visible (ANSI)
100
AcDbLine
 10
105.8787353194698
 20
286.7080057938573
 30
0.0
 11
105.8787353194698
 21
287.7999890686663
 31
0.0
  0
LINE
  5
190
330
71
100
AcDbEntity
  8
Visible (ANSI)
100
AcDbLine
 10
101.8078365772832
 20
290.6023409173788
 30
0.0
 11
40.43385265864607
 21
267.1487113484711
 31
0.0
  0
ARC
  5
191
330
71
100
AcDbEntity
  8
Visible (ANSI)
100
AcDbCircle
 10
108.8787353194698
 20
286.7080057938573
 30
0.0
 40
3.000000000000002
100
AcDbArc
 50
180.0
 51
270.0
  0
LINE
  5
192
330
71
100
AcDbEntity
  8
Visible (ANSI)
100
AcDbLine
 10
145.8787353194698
 20
283.7080057938573
 30
0.0
 11
108.8787353194698
 21
283.7080057938573
 31
0.0
  0
ARC
  5
193
330
71
100
AcDbEntity
  8
Visible (ANSI)
100
AcDbCircle
 10
145.8787353194698
 20
277.0580057938573
 30
0.0
 40
6.65
100
AcDbArc
 50
270.0
 51
90.0
  0
LINE
  5
194
330
71
100
AcDbEntity
  8
Visible (ANSI)
100
AcDbLine
 10
108.8787353194698
 20
270.4080057938573
 30
0.0
 11
145.8787353194698
 21
270.4080057938573
 31
0.0
  0
ARC
  5
195
330
71
100
AcDbEntity
  8
Visible (ANSI)
100
AcDbCircle
 10
108.8787353194698
 20
267.4080057938573
 30
0.0
 40
3.000000000000003
100
AcDbArc
 50
90.00000000000033
 51
180.0
  0
ARC
  5
196
330
71
100
AcDbEntity
  8
Visible (ANSI)
100
AcDbCircle
 10
103.8787353194698
 20
267.4080057938573
 30
0.0
 40
1.999999999999997
100
AcDbArc
 50
270.0
 51
0.0
  0
LINE
  5
197
330
71
100
AcDbEntity
  8
Visible (ANSI)
100
AcDbLine
 10
95.8787353194698
 20
265.4080057938573
 30
0.0
 11
103.8787353194698
 21
265.4080057938573
 31
0.0
  0
ARC
  5
198
330
71
100
AcDbEntity
  8
Visible (ANSI)
100
AcDbCircle
 10
40.75512228130206
 20
266.3080057938572
 30
0.0
 40
0.900000000000004
100
AcDbArc
 50
110.9139993567124
 51
269.9999999999994
  0
LINE
  5
199
330
71
100
AcDbEntity
  8
Visible (ANSI)
100
AcDbLine
 10
40.75512228130206
 20
265.4080057938573
 30
0.0
 11
65.87873531946981
 21
265.4080057938573
 31
0.0
  0
LINE
  5
19A
330
71
100
AcDbEntity
  8
Hidden (ANSI)
 48
10.75736045837402
100
AcDbLine
 10
45.4146270061211
 20
267.1679773845371
 30
0.0
 11
39.87007002305547
 21
266.1446580040579
 31
0.0
  0
LINE
  5
19B
330
71
100
AcDbEntity
  8
Visible (ANSI)
100
AcDbLine
 10
257.2938744921811
 20
255.0289074520752
 30
0.0
 11
254.9567316748396
 21
255.0289074520752
 31
0.0
  0
LINE
  5
19C
330
71
100
AcDbEntity
  8
Visible (ANSI)
100
AcDbLine
 10
257.2938744921811
 20
255.6403360130912
 30
0.0
 11
257.2938744921811
 21
255.0289074520752
 31
0.0
  0
LINE
  5
19D
330
71
100
AcDbEntity
  8
Visible (ANSI)
100
AcDbLine
 10
256.5710173616342
 20
255.6403360130912
 30
0.0
 11
257.2938744921811
 21
255.6403360130912
 31
0.0
  0
LINE
  5
19E
330
71
100
AcDbEntity
  8
Visible (ANSI)
100
AcDbLine
 10
256.5710173616342
 20
258.537478820896
 30
0.0
 11
256.5710173616342
 21
255.6403360130912
 31
0.0
  0
LINE
  5
19F
330
71
100
AcDbEntity
  8
Visible (ANSI)
100
AcDbLine
 10
255.793874517726
 20
258.537478820896
 30
0.0
 11
256.5710173616342
 21
258.537478820896
 31
0.0
  0
SPLINE
  5
1A0
330
71
100
AcDbEntity
  8
Visible (ANSI)
100
AcDbSpline
210
0.0
220
0.0
230
1.0
 70
     8
 71
     2
 72
     7
 73
     4
 74
     0
 42
0.000000001
 43
0.0000000001
 40
0.0
 40
0.0
 40
0.0
 40
1.0
 40
2.0
 40
2.0
 40
2.0
 10
255.5395888077708
 20
258.148907398942
 30
0.0
 10
255.6624459485357
 20
258.2089073979201
 30
0.0
 10
255.7824459464921
 20
258.3974788232802
 30
0.0
 10
255.793874517726
 20
258.537478820896
 30
0.0
  0
SPLINE
  5
1A1
330
71
100
AcDbEntity
  8
Visible (ANSI)
100
AcDbSpline
210
0.0
220
0.0
230
1.0
 70
     8
 71
     2
 72
     7
 73
     4
 74
     0
 42
0.000000001
 43
0.0000000001
 40
0.0
 40
0.0
 40
0.0
 40
1.0
 40
2.0
 40
2.0
 40
2.0
 10
254.9567316748396
 20
258.0603359718789
 30
0.0
 10
255.1253031005403
 20
258.0603359718789
 30
0.0
 10
255.4367316666652
 20
258.1003359711977
 30
0.0
 10
255.5395888077708
 20
258.148907398942
 30
0.0
  0
LINE
  5
1A2
330
71
100
AcDbEntity
  8
Visible (ANSI)
100
AcDbLine
 10
254.9567316748396
 20
257.4889074101817
 30
0.0
 11
254.9567316748396
 21
258.0603359718789
 31
0.0
  0
LINE
  5
1A3
330
71
100
AcDbEntity
  8
Visible (ANSI)
100
AcDbLine
 10
255.693874519429
 20
257.4889074101817
 30
0.0
 11
254.9567316748396
 21
257.4889074101817
 31
0.0
  0
LINE
  5
1A4
330
71
100
AcDbEntity
  8
Visible (ANSI)
100
AcDbLine
 10
255.693874519429
 20
255.6403360130912
 30
0.0
 11
255.693874519429
 21
257.4889074101817
 31
0.0
  0
LINE
  5
1A5
330
71
100
AcDbEntity
  8
Visible (ANSI)
100
AcDbLine
 10
254.9567316748396
 20
255.6403360130912
 30
0.0
 11
255.693874519429
 21
255.6403360130912
 31
0.0
  0
LINE
  5
1A6
330
71
100
AcDbEntity
  8
Visible (ANSI)
100
AcDbLine
 10
254.9567316748396
 20
255.0289074520752
 30
0.0
 11
254.9567316748396
 21
255.6403360130912
 31
0.0
  0
LINE
  5
1A7
330
71
100
AcDbEntity
  8
Visible (ANSI)
100
AcDbLine
 10
260.9367315730008
 20
255.0289074520752
 30
0.0
 11
258.1881601912373
 21
255.0289074520752
 31
0.0
  0
LINE
  5
1A8
330
71
100
AcDbEntity
  8
Visible (ANSI)
100
AcDbLine
 10
260.9367315730008
 20
255.697478869261
 30
0.0
 11
260.9367315730008
 21
255.0289074520752
 31
0.0
  0
LINE
  5
1A9
330
71
100
AcDbEntity
  8
Visible (ANSI)
100
AcDbLine
 10
259.362445885525
 20
255.697478869261
 30
0.0
 11
260.9367315730008
 21
255.697478869261
 31
0.0
  0
SPLINE
  5
1AA
330
71
100
AcDbEntity
  8
Visible (ANSI)
100
AcDbSpline
210
0.0
220
0.0
230
1.0
 70
     8
 71
     2
 72
     7
 73
     4
 74
     0
 42
0.000000001
 43
0.0000000001
 40
0.0
 40
0.0
 40
0.0
 40
1.0
 40
2.0
 40
2.0
 40
2.0
 10
260.1024458729229
 20
256.2917645734261
 30
0.0
 10
259.8881601622864
 20
256.0946217196405
 30
0.0
 10
259.4538744553966
 20
255.7631931538562
 30
0.0
 10
259.362445885525
 20
255.697478869261
 30
0.0
  0
SPLINE
  5
1AB
330
71
100
AcDbEntity
  8
Visible (ANSI)
100
AcDbSpline
210
0.0
220
0.0
230
1.0
 70
     8
 71
     2
 72
     7
 73
     4
 74
     0
 42
0.000000001
 43
0.0000000001
 40
0.0
 40
0.0
 40
0.0
 40
1.0
 40
2.0
 40
2.0
 40
2.0
 10
260.7738744329171
 20
257.5403359807344
 30
0.0
 10
260.7738744329171
 20
257.2060502721416
 30
0.0
 10
260.4424458671327
 20
256.608907425168
 30
0.0
 10
260.1024458729229
 20
256.2917645734261
 30
0.0
  0
SPLINE
  5
1AC
330
71
100
AcDbEntity
  8
Visible (ANSI)
100
AcDbSpline
210
0.0
220
0.0
230
1.0
 70
     8
 71
     2
 72
     7
 73
     4
 74
     0
 42
0.000000001
 43
0.0000000001
 40
0.0
 40
0.0
 40
0.0
 40
1.0
 40
2.0
 40
2.0
 40
2.0
 10
259.4253030273117
 20
258.5974788198742
 30
0.0
 10
260.0824458732635
 20
258.5974788198742
 30
0.0
 10
260.7738744329171
 20
258.0460502578365
 30
0.0
 10
260.7738744329171
 20
257.5403359807344
 30
0.0
  0
SPLINE
  5
1AD
330
71
100
AcDbEntity
  8
Visible (ANSI)
100
AcDbSpline
210
0.0
220
0.0
230
1.0
 70
     8
 71
     2
 72
     7
 73
     4
 74
     0
 42
0.000000001
 43
0.0000000001
 40
0.0
 40
0.0
 40
0.0
 40
1.0
 40
2.0
 40
2.0
 40
2.0
 10
258.2795887611088
 20
258.3774788236208
 30
0.0
 10
258.445303044001
 20
258.4517645366414
 30
0.0
 10
259.0967316043359
 20
258.5974788198742
 30
0.0
 10
259.4253030273117
 20
258.5974788198742
 30
0.0
  0
LINE
  5
1AE
330
71
100
AcDbEntity
  8
Visible (ANSI)
100
AcDbLine
 10
258.2795887611088
 20
257.6003359797127
 30
0.0
 11
258.2795887611088
 21
258.3774788236208
 31
0.0
  0
LINE
  5
1AF
330
71
100
AcDbEntity
  8
Visible (ANSI)
100
AcDbLine
 10
258.3538744741294
 20
257.6003359797127
 30
0.0
 11
258.2795887611088
 21
257.6003359797127
 31
0.0
  0
SPLINE
  5
1B0
330
71
100
AcDbEntity
  8
Visible (ANSI)
100
AcDbSpline
210
0.0
220
0.0
230
1.0
 70
     8
 71
     2
 72
     7
 73
     4
 74
     0
 42
0.000000001
 43
0.0000000001
 40
0.0
 40
0.0
 40
0.0
 40
1.0
 40
2.0
 40
2.0
 40
2.0
 10
259.2538744588026
 20
257.9174788314546
 30
0.0
 10
259.0367316053576
 20
257.9174788314546
 30
0.0
 10
258.5595887563404
 20
257.7403359773285
 30
0.0
 10
258.3538744741295
 20
257.6003359797127
 30
0.0
  0
SPLINE
  5
1B1
330
71
100
AcDbEntity
  8
Visible (ANSI)
100
AcDbSpline
210
0.0
220
0.0
230
1.0
 70
     8
 71
     2
 72
     7
 73
     4
 74
     0
 42
0.000000001
 43
0.0000000001
 40
0.0
 40
0.0
 40
0.0
 40
1.0
 40
2.0
 40
2.0
 40
2.0
 10
259.8510173057761
 20
257.4174788399695
 30
0.0
 10
259.8510173057761
 20
257.6574788358824
 30
0.0
 10
259.5424458824596
 20
257.9174788314546
 30
0.0
 10
259.2538744588026
 20
257.9174788314546
 30
0.0
  0
SPLINE
  5
1B2
330
71
100
AcDbEntity
  8
Visible (ANSI)
100
AcDbSpline
210
0.0
220
0.0
230
1.0
 70
     8
 71
     2
 72
     7
 73
     4
 74
     0
 42
0.000000001
 43
0.0000000001
 40
0.0
 40
0.0
 40
0.0
 40
1.0
 40
2.0
 40
2.0
 40
2.0
 10
259.3253030290147
 20
256.5317645693389
 30
0.0
 10
259.6110173098633
 20
256.808907421762
 30
0.0
 10
259.8510173057761
 20
257.2174788433756
 30
0.0
 10
259.8510173057761
 20
257.4174788399695
 30
0.0
  0
SPLINE
  5
1B3
330
71
100
AcDbEntity
  8
Visible (ANSI)
100
AcDbSpline
210
0.0
220
0.0
230
1.0
 70
     8
 71
     2
 72
     7
 73
     4
 74
     0
 42
0.000000001
 43
0.0000000001
 40
0.0
 40
0.0
 40
0.0
 40
1.0
 40
2.0
 40
2.0
 40
2.0
 10
258.1881601912373
 20
255.6060502993894
 30
0.0
 10
258.5024459001707
 20
255.8346217240683
 30
0.0
 10
259.1367316036547
 20
256.3460502867873
 30
0.0
 10
259.3253030290147
 20
256.5317645693389
 30
0.0
  0
LINE
  5
1B4
330
71
100
AcDbEntity
  8
Visible (ANSI)
100
AcDbLine
 10
258.1881601912373
 20
255.0289074520752
 30
0.0
 11
258.1881601912373
 21
255.6060502993894
 31
0.0
  0
LINE
  5
1B5
330
71
100
AcDbEntity
  8
Visible (ANSI)
100
AcDbLine
 10
199.4972915904921
 20
272.2928090066235
 30
0.0
 11
258.8781912975684
 21
251.0853448255248
 31
0.0
  0
ARC
  5
1B6
330
71
100
AcDbEntity
  8
Visible (ANSI)
100
AcDbCircle
 10
200.1699643844884
 20
274.1762928298132
 30
0.0
 40
2.000000000000005
100
AcDbArc
 50
109.6538240580539
 51
250.3461759419461
  0
ARC
  5
1B7
330
71
100
AcDbEntity
  8
Visible (ANSI)
100
AcDbCircle
 10
260.223536885561
 20
254.8523124719042
 30
0.0
 40
4.000000000000001
100
AcDbArc
 50
250.3461759419466
 51
0.0
  0
LINE
  5
1B8
330
71
100
AcDbEntity
  8
Visible (ANSI)
100
AcDbLine
 10
258.8781912975684
 20
297.2672408341015
 30
0.0
 11
199.4972915904921
 21
276.0597766530029
 31
0.0
  0
LINE
  5
1B9
330
71
100
AcDbEntity
  8
Visible (ANSI)
100
AcDbLine
 10
264.223536885561
 20
254.8523124719042
 30
0.0
 11
264.223536885561
 21
293.5002731877222
 31
0.0
  0
ARC
  5
1BA
330
71
100
AcDbEntity
  8
Visible (ANSI)
100
AcDbCircle
 10
260.223536885561
 20
293.5002731877222
 30
0.0
 40
3.999999999999996
100
AcDbArc
 50
0.0
 51
109.6538240580534
  0
LINE
  5
1BB
330
71
100
AcDbEntity
  8
Visible (ANSI)
100
AcDbLine
 10
231.273536885561
 20
275.7512928298132
 30
0.0
 11
231.273536885561
 21
272.6012928298132
 31
0.0
  0
LINE
  5
1BC
330
71
100
AcDbEntity
  8
Visible (ANSI)
100
AcDbLine
 10
231.273536885561
 20
272.6012928298132
 30
0.0
 11
224.173536885561
 21
272.6012928298132
 31
0.0
  0
LINE
  5
1BD
330
71
100
AcDbEntity
  8
Visible (ANSI)
100
AcDbLine
 10
224.173536885561
 20
272.6012928298132
 30
0.0
 11
224.173536885561
 21
275.7512928298132
 31
0.0
  0
LINE
  5
1BE
330
71
100
AcDbEntity
  8
Visible (ANSI)
100
AcDbLine
 10
224.173536885561
 20
275.7512928298132
 30
0.0
 11
231.273536885561
 21
275.7512928298132
 31
0.0
  0
LINE
  5
1BF
330
71
100
AcDbEntity
  8
Visible (ANSI)
100
AcDbLine
 10
254.273536885561
 20
275.7512928298132
 30
0.0
 11
254.273536885561
 21
272.6012928298132
 31
0.0
  0
LINE
  5
1C0
330
71
100
AcDbEntity
  8
Visible (ANSI)
100
AcDbLine
 10
254.273536885561
 20
272.6012928298132
 30
0.0
 11
247.173536885561
 21
272.6012928298132
 31
0.0
  0
LINE
  5
1C1
330
71
100
AcDbEntity
  8
Visible (ANSI)
100
AcDbLine
 10
247.173536885561
 20
272.6012928298132
 30
0.0
 11
247.173536885561
 21
275.7512928298132
 31
0.0
  0
LINE
  5
1C2
330
71
100
AcDbEntity
  8
Visible (ANSI)
100
AcDbLine
 10
247.173536885561
 20
275.7512928298132
 30
0.0
 11
254.273536885561
 21
275.7512928298132
 31
0.0
  0
ARC
  5
1C3
330
71
100
AcDbEntity
  8
Hidden (ANSI)
 48
11.74025154113769
100
AcDbCircle
 10
328.1717012763433
 20
268.411049130542
 30
0.0
 40
1.6
100
AcDbArc
 50
69.63586519368246
 51
290.364134806318
  0
CIRCLE
  5
1C4
330
71
100
AcDbEntity
  8
Visible (ANSI)
100
AcDbCircle
 10
328.1717012763433
 20
268.411049130542
 30
0.0
 40
0.6
  0
SPLINE
  5
1C5
330
71
100
AcDbEntity
  8
Visible (ANSI)
100
AcDbSpline
210
0.0
220
0.0
230
1.0
 70
     8
 71
     3
 72
     8
 73
     4
 74
     0
 42
0.000000001
 43
0.0000000001
 40
0.3746056967338447
 40
0.3746056967338447
 40
0.3746056967338447
 40
0.3746056967338447
 40
0.4295726212394989
 40
0.4295726212394989
 40
0.4295726212394989
 40
0.4295726212394989
 10
328.1717012763433
 20
266.8134327885541
 30
0.0
 10
328.3549243580288
 20
266.8134327885541
 30
0.0
 10
328.5494798509939
 20
266.8446079362073
 30
0.0
 10
328.7284777126263
 20
266.9110491305419
 30
0.0
  0
ARC
  5
1C6
330
71
100
AcDbEntity
  8
Visible (ANSI)
100
AcDbCircle
 10
328.1717012763433
 20
268.411049130542
 30
0.0
 40
1.6
100
AcDbArc
 50
290.364134806318
 51
69.63586519368245
  0
SPLINE
  5
1C7
330
71
100
AcDbEntity
  8
Visible (ANSI)
100
AcDbSpline
210
0.0
220
0.0
230
1.0
 70
     8
 71
     3
 72
     8
 73
     4
 74
     0
 42
0.000000001
 43
0.0000000001
 40
0.3195550378496125
 40
0.3195550378496125
 40
0.3195550378496125
 40
0.3195550378496125
 40
0.3746056967338439
 40
0.3746056967338439
 40
0.3746056967338439
 40
0.3746056967338439
 10
328.7284777126263
 20
269.9110491305419
 30
0.0
 10
328.5496437187948
 20
269.9774294997232
 30
0.0
 10
328.3552034726241
 20
270.0086654725298
 30
0.0
 10
328.1717012763433
 20
270.0086654725298
 30
0.0
  0
ARC
  5
1C8
330
71
100
AcDbEntity
  8
Visible (ANSI)
100
AcDbCircle
 10
328.1717012763433
 20
268.411049130542
 30
0.0
 40
1.597616341987848
100
AcDbArc
 50
90.0
 51
270.0
  0
ARC
  5
1C9
330
71
100
AcDbEntity
  8
Hidden (ANSI)
 48
1.804439783096313
100
AcDbCircle
 10
336.1717012763433
 20
283.3093172107823
 30
0.0
 40
2.749999999999941
100
AcDbArc
 50
35.81252712193224
 51
55.55177400852942
  0
ARC
  5
1CA
330
71
100
AcDbEntity
  8
Hidden (ANSI)
 48
1.804439783096313
100
AcDbCircle
 10
336.1717012763433
 20
283.3093172107823
 30
0.0
 40
2.749999999999972
100
AcDbArc
 50
184.8807304420557
 51
204.6199773286565
  0
SPLINE
  5
1CB
330
71
100
AcDbEntity
  8
Hidden (ANSI)
 48
0.8922755122184753
100
AcDbSpline
210
0.0
220
0.0
230
1.0
 70
     8
 71
     3
 72
    10
 73
     6
 74
     0
 42
0.000000001
 43
0.0000000001
 40
-0.3433973106713171
 40
-0.3433973106713171
 40
-0.3433973106713171
 40
-0.3433973106713171
 40
-0.3205660162849059
 40
-0.3205660162849059
 40
-0.297734721898494
 40
-0.297734721898494
 40
-0.297734721898494
 40
-0.297734721898494
 10
337.3202585876799
 20
285.8079800737103
 30
0.0
 10
337.3927178028961
 20
285.7746728346085
 30
0.0
 10
337.4624788541372
 20
285.7387305285874
 30
0.0
 10
337.5948661157898
 20
285.6636234066343
 30
0.0
 10
337.6615068279873
 20
285.6221810477466
 30
0.0
 10
337.7272698600691
 20
285.5770708088007
 30
0.0
  0
SPLINE
  5
1CC
330
71
100
AcDbEntity
  8
Hidden (ANSI)
 48
0.8922755122184753
100
AcDbSpline
210
0.0
220
0.0
230
1.0
 70
     8
 71
     3
 72
    10
 73
     6
 74
     0
 42
0.000000001
 43
0.0000000001
 40
0.6423766005772312
 40
0.6423766005772312
 40
0.6423766005772312
 40
0.6423766005772312
 40
0.6652078949636197
 40
0.6652078949636197
 40
0.6880391893500081
 40
0.6880391893500081
 40
0.6880391893500081
 40
0.6880391893500081
 10
333.4316728670231
 20
283.0753421776737
 30
0.0
 10
333.4248877790743
 20
283.1548007997853
 30
0.0
 10
333.4217260114801
 20
283.233212896161
 30
0.0
 10
333.4217260114801
 20
283.3854215254036
 30
0.0
 10
333.4248877790743
 20
283.4638336217794
 30
0.0
 10
333.4316728670231
 20
283.5432922438908
 30
0.0
  0
ARC
  5
1CD
330
71
100
AcDbEntity
  8
Hidden (ANSI)
 48
1.804439783096313
100
AcDbCircle
 10
336.1717012763433
 20
283.3093172107823
 30
0.0
 40
2.750000000000095
100
AcDbArc
 50
155.380022671344
 51
175.1192695579443
  0
ARC
  5
1CE
330
71
100
AcDbEntity
  8
Hidden (ANSI)
 48
1.804439783096313
100
AcDbCircle
 10
336.1717012763433
 20
283.3093172107823
 30
0.0
 40
2.749999999999964
100
AcDbArc
 50
65.31323489265132
 51
85.05248177924759
  0
CIRCLE
  5
1CF
330
71
100
AcDbEntity
  8
Visible (ANSI)
100
AcDbCircle
 10
336.1717012763433
 20
283.3093172107823
 30
0.0
 40
1.75
  0
SPLINE
  5
1D0
330
71
100
AcDbEntity
  8
Visible (ANSI)
100
AcDbSpline
210
0.0
220
0.0
230
1.0
 70
     8
 71
     3
 72
    14
 73
    10
 74
     0
 42
0.000000001
 43
0.0000000001
 40
0.6088661984521158
 40
0.6088661984521158
 40
0.6088661984521158
 40
0.6088661984521158
 40
0.6437075223041462
 40
0.6437075223041462
 40
0.7206016446002222
 40
0.7206016446002222
 40
0.797495766896298
 40
0.797495766896298
 40
0.8323370907483285
 40
0.8323370907483285
 40
0.8323370907483285
 40
0.8323370907483285
 10
333.6717012763433
 20
284.4549611345212
 30
0.0
 10
333.6209304904289
 20
284.3441701966426
 30
0.0
 10
333.5784917345484
 20
284.2274044736582
 30
0.0
 10
333.4691971267622
 20
283.8438129194623
 30
0.0
 10
333.4356769741789
 20
283.5656309517692
 30
0.0
 10
333.4356769741789
 20
283.0530034697954
 30
0.0
 10
333.4691971267622
 20
282.7748215021024
 30
0.0
 10
333.5784917345484
 20
282.3912299479064
 30
0.0
 10
333.6209304904289
 20
282.2744642249221
 30
0.0
 10
333.6717012763433
 20
282.1636732870434
 30
0.0
  0
ARC
  5
1D1
330
71
100
AcDbEntity
  8
Visible (ANSI)
100
AcDbCircle
 10
336.1717012763433
 20
283.3093172107823
 30
0.0
 40
2.749999999999999
100
AcDbArc
 50
204.6199773286565
 51
35.81252712193337
  0
SPLINE
  5
1D2
330
71
100
AcDbEntity
  8
Visible (ANSI)
100
AcDbSpline
210
0.0
220
0.0
230
1.0
 70
     8
 71
     3
 72
    14
 73
    10
 74
     0
 42
0.000000001
 43
0.0000000001
 40
-0.4968539112273901
 40
-0.4968539112273901
 40
-0.4968539112273901
 40
-0.4968539112273901
 40
-0.4620125873753556
 40
-0.4620125873753556
 40
-0.3851184650792781
 40
-0.3851184650792781
 40
-0.308224342783201
 40
-0.308224342783201
 40
-0.2733830189311672
 40
-0.2733830189311672
 40
-0.2733830189311672
 40
-0.2733830189311672
 10
338.4017750143708
 20
284.9184384377134
 30
0.0
 10
338.3304645944139
 20
285.0172672221033
 30
0.0
 10
338.2498460278557
 20
285.1117972638405
 30
0.0
 10
337.9701389427247
 20
285.3961416646455
 30
0.0
 10
337.7447236891562
 20
285.5625651342567
 30
0.0
 10
337.2988531171391
 20
285.8155204035909
 30
0.0
 10
337.0403569245924
 20
285.923633891268
 30
0.0
 10
336.6527873158103
 20
286.0178548554425
 30
0.0
 10
336.5302860671818
 20
286.0385605587449
 30
0.0
 10
336.4088701094733
 20
286.0490710217281
 30
0.0
  0
ARC
  5
1D3
330
71
100
AcDbEntity
  8
Visible (ANSI)
100
AcDbCircle
 10
336.1717012763433
 20
283.3093172107823
 30
0.0
 40
2.749999999999998
100
AcDbArc
 50
85.05248177924764
 51
155.3800226713441
  0
ARC
  5
1D4
330
71
100
AcDbEntity
  8
Visible (ANSI)
100
AcDbCircle
 10
328.1717012763433
 20
268.411049130542
 30
0.0
 40
3.500000000000001
100
AcDbArc
 50
90.0
 51
270.0
  0
LINE
  5
1D5
330
71
100
AcDbEntity
  8
Visible (ANSI)
100
AcDbLine
 10
331.6717012763433
 20
271.9110491305419
 30
0.0
 11
333.6717012763433
 21
269.9110491305419
 31
0.0
  0
LINE
  5
1D6
330
71
100
AcDbEntity
  8
Visible (ANSI)
100
AcDbLine
 10
331.6717012763434
 20
271.9110491305419
 30
0.0
 11
328.1717012763433
 21
271.9110491305419
 31
0.0
  0
LINE
  5
1D7
330
71
100
AcDbEntity
  8
Visible (ANSI)
100
AcDbLine
 10
381.7051987204551
 20
262.6505991456927
 30
0.0
 11
334.6585983048063
 21
289.3414960702439
 31
0.0
  0
LINE
  5
1D8
330
71
100
AcDbEntity
  8
Visible (ANSI)
100
AcDbLine
 10
331.6717012763433
 20
287.6019460550932
 30
0.0
 11
331.6717012763434
 21
271.9110491305419
 31
0.0
  0
ARC
  5
1D9
330
71
100
AcDbEntity
  8
Visible (ANSI)
100
AcDbCircle
 10
333.6717012763433
 20
287.6019460550932
 30
0.0
 40
2.0
100
AcDbArc
 50
60.43250445058969
 51
180.0
  0
ARC
  5
1DA
330
71
100
AcDbEntity
  8
Visible (ANSI)
100
AcDbCircle
 10
380.7183016919921
 20
260.911049130542
 30
0.0
 40
1.999999999999999
100
AcDbArc
 50
270.0
 51
60.43250445059015
  0
LINE
  5
1DB
330
71
100
AcDbEntity
  8
Visible (ANSI)
100
AcDbLine
 10
368.2967012763433
 20
258.911049130542
 30
0.0
 11
380.7183016919921
 21
258.911049130542
 31
0.0
  0
LINE
  5
1DC
330
71
100
AcDbEntity
  8
Visible (ANSI)
100
AcDbLine
 10
328.1717012763433
 20
264.9110491305419
 30
0.0
 11
331.6717012763434
 21
264.9110491305419
 31
0.0
  0
LINE
  5
1DD
330
71
100
AcDbEntity
  8
Visible (ANSI)
100
AcDbLine
 10
331.6717012763434
 20
264.9110491305419
 30
0.0
 11
331.6717012763434
 21
258.9110491305419
 31
0.0
  0
LINE
  5
1DE
330
71
100
AcDbEntity
  8
Visible (ANSI)
100
AcDbLine
 10
333.6717012763433
 20
258.9110491305419
 30
0.0
 11
331.6717012763433
 21
258.9110491305419
 31
0.0
  0
LINE
  5
1DF
330
71
100
AcDbEntity
  8
Visible (ANSI)
100
AcDbLine
 10
331.6717012763433
 20
264.9110491305419
 30
0.0
 11
333.6717012763433
 21
266.9110491305419
 31
0.0
  0
LINE
  5
1E0
330
71
100
AcDbEntity
  8
Visible (ANSI)
100
AcDbLine
 10
333.6717012763433
 20
258.911049130542
 30
0.0
 11
339.2967012763433
 21
258.911049130542
 31
0.0
  0
LINE
  5
1E1
330
71
100
AcDbEntity
  8
Visible (ANSI)
100
AcDbLine
 10
339.2967012763433
 20
258.911049130542
 30
0.0
 11
339.2967012763433
 21
255.736049130542
 31
0.0
  0
LINE
  5
1E2
330
71
100
AcDbEntity
  8
Visible (ANSI)
100
AcDbLine
 10
339.2967012763433
 20
255.736049130542
 30
0.0
 11
346.2967012763434
 21
255.736049130542
 31
0.0
  0
LINE
  5
1E3
330
71
100
AcDbEntity
  8
Visible (ANSI)
100
AcDbLine
 10
346.2967012763434
 20
255.736049130542
 30
0.0
 11
346.2967012763434
 21
258.911049130542
 31
0.0
  0
LINE
  5
1E4
330
71
100
AcDbEntity
  8
Visible (ANSI)
100
AcDbLine
 10
346.2967012763434
 20
258.911049130542
 30
0.0
 11
361.2967012763434
 21
258.911049130542
 31
0.0
  0
LINE
  5
1E5
330
71
100
AcDbEntity
  8
Visible (ANSI)
100
AcDbLine
 10
361.2967012763434
 20
258.911049130542
 30
0.0
 11
361.2967012763434
 21
255.736049130542
 31
0.0
  0
LINE
  5
1E6
330
71
100
AcDbEntity
  8
Visible (ANSI)
100
AcDbLine
 10
361.2967012763434
 20
255.736049130542
 30
0.0
 11
368.2967012763433
 21
255.736049130542
 31
0.0
  0
LINE
  5
1E7
330
71
100
AcDbEntity
  8
Visible (ANSI)
100
AcDbLine
 10
368.2967012763433
 20
255.736049130542
 30
0.0
 11
368.2967012763433
 21
260.911049130542
 31
0.0
  0
SPLINE
  5
1E8
330
71
100
AcDbEntity
  8
Visible (ANSI)
100
AcDbSpline
210
0.0
220
0.0
230
1.0
 70
     8
 71
     2
 72
     7
 73
     4
 74
     0
 42
0.000000001
 43
0.0000000001
 40
0.0
 40
0.0
 40
0.0
 40
1.0
 40
2.0
 40
2.0
 40
2.0
 10
339.9029012404998
 20
262.1356750867386
 30
0.0
 10
340.0171869528392
 20
262.0356750884416
 30
0.0
 10
340.1543298076465
 20
261.7728179500609
 30
0.0
 10
340.1543298076465
 20
261.5556750966159
 30
0.0
  0
SPLINE
  5
1E9
330
71
100
AcDbEntity
  8
Visible (ANSI)
100
AcDbSpline
210
0.0
220
0.0
230
1.0
 70
     8
 71
     2
 72
     7
 73
     4
 74
     0
 42
0.000000001
 43
0.0000000001
 40
0.0
 40
0.0
 40
0.0
 40
1.0
 40
2.0
 40
2.0
 40
2.0
 10
340.1543298076465
 20
261.5556750966159
 30
0.0
 10
340.1543298076465
 20
261.3071036722776
 30
0.0
 10
339.9600440966694
 20
260.8785322510048
 30
0.0
 10
339.757186957267
 20
260.727103682155
 30
0.0
  0
SPLINE
  5
1EA
330
71
100
AcDbEntity
  8
Visible (ANSI)
100
AcDbSpline
210
0.0
220
0.0
230
1.0
 70
     8
 71
     2
 72
     7
 73
     4
 74
     0
 42
0.000000001
 43
0.0000000001
 40
0.0
 40
0.0
 40
0.0
 40
1.0
 40
2.0
 40
2.0
 40
2.0
 10
339.757186957267
 20
260.727103682155
 30
0.0
 10
339.5600441034815
 20
260.5785322561138
 30
0.0
 10
339.0257583982946
 20
260.421389401647
 30
0.0
 10
338.6457584047659
 20
260.421389401647
 30
0.0
  0
SPLINE
  5
1EB
330
71
100
AcDbEntity
  8
Visible (ANSI)
100
AcDbSpline
210
0.0
220
0.0
230
1.0
 70
     8
 71
     2
 72
     7
 73
     4
 74
     0
 42
0.000000001
 43
0.0000000001
 40
0.0
 40
0.0
 40
0.0
 40
1.0
 40
2.0
 40
2.0
 40
2.0
 10
338.6457584047659
 20
260.421389401647
 30
0.0
 10
338.2086155550675
 20
260.421389401647
 30
0.0
 10
337.5857584228175
 20
260.5585322564543
 30
0.0
 10
337.3914727118406
 20
260.6413893979005
 30
0.0
  0
LINE
  5
1EC
330
71
100
AcDbEntity
  8
Visible (ANSI)
100
AcDbLine
 10
337.3914727118406
 20
260.6413893979005
 30
0.0
 11
337.3914727118406
 21
261.4099608133831
 31
0.0
  0
LINE
  5
1ED
330
71
100
AcDbEntity
  8
Visible (ANSI)
100
AcDbLine
 10
337.3914727118406
 20
261.4099608133831
 30
0.0
 11
337.4829012817122
 21
261.4099608133831
 31
0.0
  0
SPLINE
  5
1EE
330
71
100
AcDbEntity
  8
Visible (ANSI)
100
AcDbSpline
210
0.0
220
0.0
230
1.0
 70
     8
 71
     2
 72
     7
 73
     4
 74
     0
 42
0.000000001
 43
0.0000000001
 40
0.0
 40
0.0
 40
0.0
 40
1.0
 40
2.0
 40
2.0
 40
2.0
 10
337.4829012817122
 20
261.4099608133831
 30
0.0
 10
337.6857584211146
 20
261.2871036726183
 30
0.0
 10
338.2486155543864
 20
261.1099608184921
 30
0.0
 10
338.4800441218737
 20
261.1099608184921
 30
0.0
  0
SPLINE
  5
1EF
330
71
100
AcDbEntity
  8
Visible (ANSI)
100
AcDbSpline
210
0.0
220
0.0
230
1.0
 70
     8
 71
     2
 72
     7
 73
     4
 74
     0
 42
0.000000001
 43
0.0000000001
 40
0.0
 40
0.0
 40
0.0
 40
1.0
 40
2.0
 40
2.0
 40
2.0
 10
338.4800441218737
 20
261.1099608184921
 30
0.0
 10
338.617186976681
 20
261.1099608184921
 30
0.0
 10
338.9371869712315
 20
261.1556751034279
 30
0.0
 10
339.045758397954
 20
261.2299608164486
 30
0.0
  0
SPLINE
  5
1F0
330
71
100
AcDbEntity
  8
Visible (ANSI)
100
AcDbSpline
210
0.0
220
0.0
230
1.0
 70
     8
 71
     2
 72
     7
 73
     4
 74
     0
 42
0.000000001
 43
0.0000000001
 40
0.0
 40
0.0
 40
0.0
 40
1.0
 40
2.0
 40
2.0
 40
2.0
 10
339.045758397954
 20
261.2299608164486
 30
0.0
 10
339.1343298250171
 20
261.2899608154267
 30
0.0
 10
339.2371869661225
 20
261.455675098319
 30
0.0
 10
339.2371869661225
 20
261.6128179527857
 30
0.0
  0
SPLINE
  5
1F1
330
71
100
AcDbEntity
  8
Visible (ANSI)
100
AcDbSpline
210
0.0
220
0.0
230
1.0
 70
     8
 71
     2
 72
     7
 73
     4
 74
     0
 42
0.000000001
 43
0.0000000001
 40
0.0
 40
0.0
 40
0.0
 40
1.0
 40
2.0
 40
2.0
 40
2.0
 10
339.2371869661225
 20
261.6128179527857
 30
0.0
 10
339.2371869661225
 20
261.767103664444
 30
0.0
 10
339.0971869685067
 20
261.9328179473361
 30
0.0
 10
338.9800441133588
 20
261.9671036610379
 30
0.0
  0
SPLINE
  5
1F2
330
71
100
AcDbEntity
  8
Visible (ANSI)
100
AcDbSpline
210
0.0
220
0.0
230
1.0
 70
     8
 71
     2
 72
     7
 73
     4
 74
     0
 42
0.000000001
 43
0.0000000001
 40
0.0
 40
0.0
 40
0.0
 40
1.0
 40
2.0
 40
2.0
 40
2.0
 10
338.9800441133588
 20
261.9671036610379
 30
0.0
 10
338.8657584010193
 20
262.0071036603567
 30
0.0
 10
338.540044120852
 20
262.0128179459737
 30
0.0
 10
338.4029012660446
 20
262.0128179459737
 30
0.0
  0
LINE
  5
1F3
330
71
100
AcDbEntity
  8
Visible (ANSI)
100
AcDbLine
 10
338.4029012660446
 20
262.0128179459737
 30
0.0
 11
338.2086155550675
 21
262.0128179459737
 31
0.0
  0
LINE
  5
1F4
330
71
100
AcDbEntity
  8
Visible (ANSI)
100
AcDbLine
 10
338.2086155550675
 20
262.0128179459737
 30
0.0
 11
338.2086155550675
 21
262.6385322210321
 31
0.0
  0
LINE
  5
1F5
330
71
100
AcDbEntity
  8
Visible (ANSI)
100
AcDbLine
 10
338.2086155550675
 20
262.6385322210321
 30
0.0
 11
338.4086155516616
 21
262.6385322210321
 31
0.0
  0
SPLINE
  5
1F6
330
71
100
AcDbEntity
  8
Visible (ANSI)
100
AcDbSpline
210
0.0
220
0.0
230
1.0
 70
     8
 71
     2
 72
     7
 73
     4
 74
     0
 42
0.000000001
 43
0.0000000001
 40
0.0
 40
0.0
 40
0.0
 40
1.0
 40
2.0
 40
2.0
 40
2.0
 10
338.4086155516616
 20
262.6385322210321
 30
0.0
 10
338.5914726914046
 20
262.6385322210321
 30
0.0
 10
338.8743298294448
 20
262.6613893635
 30
0.0
 10
338.9743298277418
 20
262.7042465056273
 30
0.0
  0
SPLINE
  5
1F7
330
71
100
AcDbEntity
  8
Visible (ANSI)
100
AcDbSpline
210
0.0
220
0.0
230
1.0
 70
     8
 71
     2
 72
     7
 73
     4
 74
     0
 42
0.000000001
 43
0.0000000001
 40
0.0
 40
0.0
 40
0.0
 40
1.0
 40
2.0
 40
2.0
 40
2.0
 10
338.9743298277418
 20
262.7042465056273
 30
0.0
 10
339.0771869688473
 20
262.7499607905631
 30
0.0
 10
339.1800441099528
 20
262.8985322166044
 30
0.0
 10
339.1800441099528
 20
263.0413893570286
 30
0.0
  0
SPLINE
  5
1F8
330
71
100
AcDbEntity
  8
Visible (ANSI)
100
AcDbSpline
210
0.0
220
0.0
230
1.0
 70
     8
 71
     2
 72
     7
 73
     4
 74
     0
 42
0.000000001
 43
0.0000000001
 40
0.0
 40
0.0
 40
0.0
 40
1.0
 40
2.0
 40
2.0
 40
2.0
 10
339.1800441099528
 20
263.0413893570286
 30
0.0
 10
339.1800441099528
 20
263.1499607837511
 30
0.0
 10
339.0714726832303
 20
263.2785322101331
 30
0.0
 10
338.9886155417843
 20
263.3156750666433
 30
0.0
  0
SPLINE
  5
1F9
330
71
100
AcDbEntity
  8
Visible (ANSI)
100
AcDbSpline
210
0.0
220
0.0
230
1.0
 70
     8
 71
     2
 72
     7
 73
     4
 74
     0
 42
0.000000001
 43
0.0000000001
 40
0.0
 40
0.0
 40
0.0
 40
1.0
 40
2.0
 40
2.0
 40
2.0
 10
338.9886155417843
 20
263.3156750666433
 30
0.0
 10
338.8971869719127
 20
263.3585322087706
 30
0.0
 10
338.6486155475744
 20
263.3871036368555
 30
0.0
 10
338.5600441205113
 20
263.3871036368555
 30
0.0
  0
SPLINE
  5
1FA
330
71
100
AcDbEntity
  8
Visible (ANSI)
100
AcDbSpline
210
0.0
220
0.0
230
1.0
 70
     8
 71
     2
 72
     7
 73
     4
 74
     0
 42
0.000000001
 43
0.0000000001
 40
0.0
 40
0.0
 40
0.0
 40
1.0
 40
2.0
 40
2.0
 40
2.0
 10
338.5600441205113
 20
263.3871036368555
 30
0.0
 10
338.3371869814494
 20
263.3871036368555
 30
0.0
 10
337.8200441331135
 20
263.2328179251972
 30
0.0
 10
337.5771869943922
 20
263.0899607847729
 30
0.0
  0
LINE
  5
1FB
330
71
100
AcDbEntity
  8
Visible (ANSI)
100
AcDbLine
 10
337.5771869943922
 20
263.0899607847729
 30
0.0
 11
337.4914727101375
 21
263.0899607847729
 31
0.0
  0
LINE
  5
1FC
330
71
100
AcDbEntity
  8
Visible (ANSI)
100
AcDbLine
 10
337.4914727101375
 20
263.0899607847729
 30
0.0
 11
337.4914727101375
 21
263.8499607718302
 31
0.0
  0
SPLINE
  5
1FD
330
71
100
AcDbEntity
  8
Visible (ANSI)
100
AcDbSpline
210
0.0
220
0.0
230
1.0
 70
     8
 71
     2
 72
     7
 73
     4
 74
     0
 42
0.000000001
 43
0.0000000001
 40
0.0
 40
0.0
 40
0.0
 40
1.0
 40
2.0
 40
2.0
 40
2.0
 10
337.4914727101375
 20
263.8499607718302
 30
0.0
 10
337.6857584211146
 20
263.9271036276593
 30
0.0
 10
338.3486155526834
 20
264.0699607680836
 30
0.0
 10
338.6886155468932
 20
264.0699607680836
 30
0.0
  0
SPLINE
  5
1FE
330
71
100
AcDbEntity
  8
Visible (ANSI)
100
AcDbSpline
210
0.0
220
0.0
230
1.0
 70
     8
 71
     2
 72
     7
 73
     4
 74
     0
 42
0.000000001
 43
0.0000000001
 40
0.0
 40
0.0
 40
0.0
 40
1.0
 40
2.0
 40
2.0
 40
2.0
 10
338.6886155468932
 20
264.0699607680836
 30
0.0
 10
339.0200441126776
 20
264.0699607680836
 30
0.0
 10
339.5200441041627
 20
263.9556750557442
 30
0.0
 10
339.6829012442463
 20
263.8585322002557
 30
0.0
  0
SPLINE
  5
1FF
330
71
100
AcDbEntity
  8
Visible (ANSI)
100
AcDbSpline
210
0.0
220
0.0
230
1.0
 70
     8
 71
     2
 72
     7
 73
     4
 74
     0
 42
0.000000001
 43
0.0000000001
 40
0.0
 40
0.0
 40
0.0
 40
1.0
 40
2.0
 40
2.0
 40
2.0
 10
339.6829012442463
 20
263.8585322002557
 30
0.0
 10
339.8743298124149
 20
263.7413893451078
 30
0.0
 10
340.0629012377749
 20
263.4128179221319
 30
0.0
 10
340.0629012377749
 20
263.1928179258784
 30
0.0
  0
SPLINE
  5
200
330
71
100
AcDbEntity
  8
Visible (ANSI)
100
AcDbSpline
210
0.0
220
0.0
230
1.0
 70
     8
 71
     2
 72
     7
 73
     4
 74
     0
 42
0.000000001
 43
0.0000000001
 40
0.0
 40
0.0
 40
0.0
 40
1.0
 40
2.0
 40
2.0
 40
2.0
 10
340.0629012377749
 20
263.1928179258784
 30
0.0
 10
340.0629012377749
 20
262.9013893594128
 30
0.0
 10
339.7000441010972
 20
262.4413893672466
 30
0.0
 10
339.4029012490147
 20
262.3785322254599
 30
0.0
  0
LINE
  5
201
330
71
100
AcDbEntity
  8
Visible (ANSI)
100
AcDbLine
 10
339.4029012490147
 20
262.3785322254599
 30
0.0
 11
339.4029012490147
 21
262.3442465117581
 31
0.0
  0
SPLINE
  5
202
330
71
100
AcDbEntity
  8
Visible (ANSI)
100
AcDbSpline
210
0.0
220
0.0
230
1.0
 70
     8
 71
     2
 72
     7
 73
     4
 74
     0
 42
0.000000001
 43
0.0000000001
 40
0.0
 40
0.0
 40
0.0
 40
1.0
 40
2.0
 40
2.0
 40
2.0
 10
339.4029012490147
 20
262.3442465117581
 30
0.0
 10
339.5229012469712
 20
262.3271036549072
 30
0.0
 10
339.7914726709688
 20
262.2299607994187
 30
0.0
 10
339.9029012404998
 20
262.1356750867386
 30
0.0
  0
LINE
  5
203
330
71
100
AcDbEntity
  8
Visible (ANSI)
100
AcDbLine
 10
336.6029012966984
 20
260.4956751146677
 30
0.0
 11
334.2657584793569
 21
260.4956751146677
 31
0.0
  0
LINE
  5
204
330
71
100
AcDbEntity
  8
Visible (ANSI)
100
AcDbLine
 10
334.2657584793569
 20
260.4956751146677
 30
0.0
 11
334.2657584793569
 21
261.1071036756837
 31
0.0
  0
LINE
  5
205
330
71
100
AcDbEntity
  8
Visible (ANSI)
100
AcDbLine
 10
334.2657584793569
 20
261.1071036756837
 30
0.0
 11
335.0029013239463
 21
261.1071036756837
 31
0.0
  0
LINE
  5
206
330
71
100
AcDbEntity
  8
Visible (ANSI)
100
AcDbLine
 10
335.0029013239463
 20
261.1071036756837
 30
0.0
 11
335.0029013239463
 21
262.9556750727741
 31
0.0
  0
LINE
  5
207
330
71
100
AcDbEntity
  8
Visible (ANSI)
100
AcDbLine
 10
335.0029013239463
 20
262.9556750727741
 30
0.0
 11
334.2657584793569
 21
262.9556750727741
 31
0.0
  0
LINE
  5
208
330
71
100
AcDbEntity
  8
Visible (ANSI)
100
AcDbLine
 10
334.2657584793569
 20
262.9556750727741
 30
0.0
 11
334.2657584793569
 21
263.5271036344713
 31
0.0
  0
SPLINE
  5
209
330
71
100
AcDbEntity
  8
Visible (ANSI)
100
AcDbSpline
210
0.0
220
0.0
230
1.0
 70
     8
 71
     2
 72
     7
 73
     4
 74
     0
 42
0.000000001
 43
0.0000000001
 40
0.0
 40
0.0
 40
0.0
 40
1.0
 40
2.0
 40
2.0
 40
2.0
 10
334.2657584793569
 20
263.5271036344713
 30
0.0
 10
334.4343299050576
 20
263.5271036344713
 30
0.0
 10
334.7457584711825
 20
263.5671036337901
 30
0.0
 10
334.848615612288
 20
263.6156750615344
 30
0.0
  0
SPLINE
  5
20A
330
71
100
AcDbEntity
  8
Visible (ANSI)
100
AcDbSpline
210
0.0
220
0.0
230
1.0
 70
     8
 71
     2
 72
     7
 73
     4
 74
     0
 42
0.000000001
 43
0.0000000001
 40
0.0
 40
0.0
 40
0.0
 40
1.0
 40
2.0
 40
2.0
 40
2.0
 10
334.848615612288
 20
263.6156750615344
 30
0.0
 10
334.9714727530529
 20
263.6756750605126
 30
0.0
 10
335.0914727510093
 20
263.8642464858726
 30
0.0
 10
335.1029013222433
 20
264.0042464834885
 30
0.0
  0
LINE
  5
20B
330
71
100
AcDbEntity
  8
Visible (ANSI)
100
AcDbLine
 10
335.1029013222433
 20
264.0042464834885
 30
0.0
 11
335.8800441661515
 21
264.0042464834885
 31
0.0
  0
LINE
  5
20C
330
71
100
AcDbEntity
  8
Visible (ANSI)
100
AcDbLine
 10
335.8800441661515
 20
264.0042464834885
 30
0.0
 11
335.8800441661515
 21
261.1071036756837
 31
0.0
  0
LINE
  5
20D
330
71
100
AcDbEntity
  8
Visible (ANSI)
100
AcDbLine
 10
335.8800441661515
 20
261.1071036756837
 30
0.0
 11
336.6029012966984
 21
261.1071036756837
 31
0.0
  0
LINE
  5
20E
330
71
100
AcDbEntity
  8
Visible (ANSI)
100
AcDbLine
 10
336.6029012966984
 20
261.1071036756837
 30
0.0
 11
336.6029012966984
 21
260.4956751146677
 31
0.0
  0
LINE
  5
20F
330
71
100
AcDbEntity
  8
Visible (ANSI)
100
AcDbLine
 10
441.5681684191396
 20
250.8077075116293
 30
0.0
 11
441.5681684191396
 21
252.0762789185971
 31
0.0
  0
LINE
  5
210
330
71
100
AcDbEntity
  8
Visible (ANSI)
100
AcDbLine
 10
441.5681684191396
 20
252.0762789185971
 30
0.0
 11
440.54816843651
 21
250.8077075116293
 31
0.0
  0
LINE
  5
211
330
71
100
AcDbEntity
  8
Visible (ANSI)
100
AcDbLine
 10
440.54816843651
 20
250.8077075116293
 30
0.0
 11
441.5681684191396
 21
250.8077075116293
 31
0.0
  0
LINE
  5
212
330
71
100
AcDbEntity
  8
Visible (ANSI)
100
AcDbLine
 10
442.9081683963195
 20
250.1677075225285
 30
0.0
 11
442.4310255473023
 21
250.1677075225285
 31
0.0
  0
LINE
  5
213
330
71
100
AcDbEntity
  8
Visible (ANSI)
100
AcDbLine
 10
442.9081683963195
 20
250.8077075116293
 30
0.0
 11
442.9081683963195
 21
250.1677075225285
 31
0.0
  0
LINE
  5
214
330
71
100
AcDbEntity
  8
Visible (ANSI)
100
AcDbLine
 10
442.4310255473023
 20
250.8077075116293
 30
0.0
 11
442.9081683963195
 21
250.8077075116293
 31
0.0
  0
LINE
  5
215
330
71
100
AcDbEntity
  8
Visible (ANSI)
100
AcDbLine
 10
442.4310255473023
 20
252.8619931909308
 30
0.0
 11
442.4310255473023
 21
250.8077075116293
 31
0.0
  0
LINE
  5
216
330
71
100
AcDbEntity
  8
Visible (ANSI)
100
AcDbLine
 10
441.5110255629698
 20
252.8619931909308
 30
0.0
 11
442.4310255473023
 21
252.8619931909308
 31
0.0
  0
LINE
  5
217
330
71
100
AcDbEntity
  8
Visible (ANSI)
100
AcDbLine
 10
439.8738827337074
 20
250.8305646540972
 30
0.0
 11
441.5110255629698
 21
252.8619931909308
 31
0.0
  0
LINE
  5
218
330
71
100
AcDbEntity
  8
Visible (ANSI)
100
AcDbLine
 10
439.8738827337074
 20
250.1677075225285
 30
0.0
 11
439.8738827337074
 21
250.8305646540972
 31
0.0
  0
LINE
  5
219
330
71
100
AcDbEntity
  8
Visible (ANSI)
100
AcDbLine
 10
441.5681684191396
 20
250.1677075225285
 30
0.0
 11
439.8738827337074
 21
250.1677075225285
 31
0.0
  0
LINE
  5
21A
330
71
100
AcDbEntity
  8
Visible (ANSI)
100
AcDbLine
 10
441.5681684191396
 20
249.35342182211
 30
0.0
 11
441.5681684191396
 21
250.1677075225285
 31
0.0
  0
LINE
  5
21B
330
71
100
AcDbEntity
  8
Visible (ANSI)
100
AcDbLine
 10
442.4310255473023
 20
249.35342182211
 30
0.0
 11
441.5681684191396
 21
249.35342182211
 31
0.0
  0
LINE
  5
21C
330
71
100
AcDbEntity
  8
Visible (ANSI)
100
AcDbLine
 10
442.4310255473023
 20
250.1677075225285
 30
0.0
 11
442.4310255473023
 21
249.35342182211
 31
0.0
  0
LINE
  5
21D
330
71
100
AcDbEntity
  8
Visible (ANSI)
100
AcDbLine
 10
439.2167398877555
 20
249.3619932505354
 30
0.0
 11
436.879597070414
 21
249.3619932505354
 31
0.0
  0
LINE
  5
21E
330
71
100
AcDbEntity
  8
Visible (ANSI)
100
AcDbLine
 10
439.2167398877555
 20
249.9734218115515
 30
0.0
 11
439.2167398877555
 21
249.3619932505354
 31
0.0
  0
LINE
  5
21F
330
71
100
AcDbEntity
  8
Visible (ANSI)
100
AcDbLine
 10
438.4938827572086
 20
249.9734218115515
 30
0.0
 11
439.2167398877555
 21
249.9734218115515
 31
0.0
  0
LINE
  5
220
330
71
100
AcDbEntity
  8
Visible (ANSI)
100
AcDbLine
 10
438.4938827572086
 20
252.8705646193562
 30
0.0
 11
438.4938827572086
 21
249.9734218115515
 31
0.0
  0
LINE
  5
221
330
71
100
AcDbEntity
  8
Visible (ANSI)
100
AcDbLine
 10
437.7167399133004
 20
252.8705646193562
 30
0.0
 11
438.4938827572086
 21
252.8705646193562
 31
0.0
  0
SPLINE
  5
222
330
71
100
AcDbEntity
  8
Visible (ANSI)
100
AcDbSpline
210
0.0
220
0.0
230
1.0
 70
     8
 71
     2
 72
     7
 73
     4
 74
     0
 42
0.000000001
 43
0.0000000001
 40
0.0
 40
0.0
 40
0.0
 40
1.0
 40
2.0
 40
2.0
 40
2.0
 10
437.4624542033451
 20
252.4819931974022
 30
0.0
 10
437.5853113441101
 20
252.5419931963804
 30
0.0
 10
437.7053113420664
 20
252.7305646217404
 30
0.0
 10
437.7167399133004
 20
252.8705646193562
 30
0.0
  0
SPLINE
  5
223
330
71
100
AcDbEntity
  8
Visible (ANSI)
100
AcDbSpline
210
0.0
220
0.0
230
1.0
 70
     8
 71
     2
 72
     7
 73
     4
 74
     0
 42
0.000000001
 43
0.0000000001
 40
0.0
 40
0.0
 40
0.0
 40
1.0
 40
2.0
 40
2.0
 40
2.0
 10
436.879597070414
 20
252.3934217703391
 30
0.0
 10
437.0481684961147
 20
252.3934217703391
 30
0.0
 10
437.3595970622397
 20
252.4334217696579
 30
0.0
 10
437.4624542033451
 20
252.4819931974022
 30
0.0
  0
LINE
  5
224
330
71
100
AcDbEntity
  8
Visible (ANSI)
100
AcDbLine
 10
436.879597070414
 20
251.8219932086419
 30
0.0
 11
436.879597070414
 21
252.3934217703391
 31
0.0
  0
LINE
  5
225
330
71
100
AcDbEntity
  8
Visible (ANSI)
100
AcDbLine
 10
437.6167399150034
 20
251.8219932086419
 30
0.0
 11
436.879597070414
 21
251.8219932086419
 31
0.0
  0
LINE
  5
226
330
71
100
AcDbEntity
  8
Visible (ANSI)
100
AcDbLine
 10
437.6167399150034
 20
249.9734218115515
 30
0.0
 11
437.6167399150034
 21
251.8219932086419
 31
0.0
  0
LINE
  5
227
330
71
100
AcDbEntity
  8
Visible (ANSI)
100
AcDbLine
 10
436.879597070414
 20
249.9734218115515
 30
0.0
 11
437.6167399150034
 21
249.9734218115515
 31
0.0
  0
LINE
  5
228
330
71
100
AcDbEntity
  8
Visible (ANSI)
100
AcDbLine
 10
436.879597070414
 20
249.3619932505354
 30
0.0
 11
436.879597070414
 21
249.9734218115515
 31
0.0
  0
LINE
  5
229
330
71
100
AcDbEntity
  8
Visible (ANSI)
100
AcDbLine
 10
460.9372050878429
 20
261.2968162556819
 30
0.0
 11
460.9372050878429
 21
254.1968162556818
 31
0.0
  0
LINE
  5
22A
330
71
100
AcDbEntity
  8
Visible (ANSI)
100
AcDbLine
 10
460.9372050878429
 20
254.1968162556818
 30
0.0
 11
457.5872050878428
 21
254.1968162556818
 31
0.0
  0
LINE
  5
22B
330
71
100
AcDbEntity
  8
Visible (ANSI)
100
AcDbLine
 10
457.5872050878428
 20
254.1968162556818
 30
0.0
 11
457.5872050878428
 21
261.2968162556819
 31
0.0
  0
LINE
  5
22C
330
71
100
AcDbEntity
  8
Visible (ANSI)
100
AcDbLine
 10
457.5872050878428
 20
261.2968162556819
 30
0.0
 11
460.9372050878429
 21
261.2968162556819
 31
0.0
  0
LINE
  5
22D
330
71
100
AcDbEntity
  8
Visible (ANSI)
100
AcDbLine
 10
460.9372050878429
 20
283.4968162556819
 30
0.0
 11
460.9372050878429
 21
276.3968162556819
 31
0.0
  0
LINE
  5
22E
330
71
100
AcDbEntity
  8
Visible (ANSI)
100
AcDbLine
 10
460.9372050878429
 20
276.3968162556819
 30
0.0
 11
457.5872050878428
 21
276.3968162556819
 31
0.0
  0
LINE
  5
22F
330
71
100
AcDbEntity
  8
Visible (ANSI)
100
AcDbLine
 10
457.5872050878428
 20
276.3968162556819
 30
0.0
 11
457.5872050878428
 21
283.4968162556819
 31
0.0
  0
LINE
  5
230
330
71
100
AcDbEntity
  8
Visible (ANSI)
100
AcDbLine
 10
457.5872050878428
 20
283.4968162556819
 30
0.0
 11
460.9372050878429
 21
283.4968162556819
 31
0.0
  0
ARC
  5
231
330
71
100
AcDbEntity
  8
Visible (ANSI)
100
AcDbCircle
 10
434.0078650964565
 20
248.8218162556819
 30
0.0
 40
1.999999999999999
100
AcDbArc
 50
153.2833730402534
 51
270.0
  0
LINE
  5
232
330
71
100
AcDbEntity
  8
Visible (ANSI)
100
AcDbLine
 10
434.0078650964565
 20
246.8218162556819
 30
0.0
 11
484.5165450792292
 21
246.8218162556819
 31
0.0
  0
ARC
  5
233
330
71
100
AcDbEntity
  8
Visible (ANSI)
100
AcDbCircle
 10
484.5165450792292
 20
248.8218162556819
 30
0.0
 40
1.999999999999997
100
AcDbArc
 50
270.0
 51
26.71662695974656
  0
LINE
  5
234
330
71
100
AcDbEntity
  8
Visible (ANSI)
100
AcDbLine
 10
486.3030270002286
 20
249.7209727192312
 30
0.0
 11
462.8351689298415
 21
296.3479012538161
 31
0.0
  0
ARC
  5
235
330
71
100
AcDbEntity
  8
Visible (ANSI)
100
AcDbCircle
 10
459.2622050878429
 20
294.5495883267174
 30
0.0
 40
4.000000000000001
100
AcDbArc
 50
26.71662695974704
 51
153.2833730402539
  0
LINE
  5
236
330
71
100
AcDbEntity
  8
Visible (ANSI)
100
AcDbLine
 10
455.6892412458442
 20
296.3479012538161
 30
0.0
 11
432.2213831754571
 21
249.7209727192312
 31
0.0
  0
ENDSEC
  0
SECTION
  2
OBJECTS
  0
DICTIONARY
  5
C
330
0
100
AcDbDictionary
281
     1
  3
ACAD_CIP_PREVIOUS_PRODUCT_INFO
350
237
  3
ACAD_COLOR
350
63
  3
ACAD_DETAILVIEWSTYLE
350
6B
  3
ACAD_GROUP
350
D
  3
ACAD_LAYOUT
350
62
  3
ACAD_MATERIAL
350
10
  3
ACAD_MLEADERSTYLE
350
66
  3
ACAD_MLINESTYLE
350
5F
  3
ACAD_PLOTSETTINGS
350
61
  3
ACAD_PLOTSTYLENAME
350
E
  3
ACAD_SCALELIST
350
42
  3
ACAD_SECTIONVIEWSTYLE
350
68
  3
ACAD_TABLESTYLE
350
64
  3
ACAD_VISUALSTYLE
350
29
  3
ACDB_RECOMPOSE_DATA
350
240
  3
AcDbVariableDictionary
350
238
  0
XRECORD
  5
237
102
{ACAD_REACTORS
330
C
102
}
330
C
100
AcDbXrecord
280
     1
300
INVPROSA
300
2013
300
INVPROSA_F_S
  0
DICTIONARY
  5
63
102
{ACAD_REACTORS
330
C
102
}
330
C
100
AcDbDictionary
281
     1
  0
DICTIONARY
  5
6B
102
{ACAD_REACTORS
330
C
102
}
330
C
100
AcDbDictionary
281
     1
  3
Imperial24
350
6C
  0
DICTIONARY
  5
D
102
{ACAD_REACTORS
330
C
102
}
330
C
100
AcDbDictionary
281
     1
  0
DICTIONARY
  5
62
102
{ACAD_REACTORS
330
C
102
}
330
C
100
AcDbDictionary
281
     1
  3
Layout1
350
70
  3
Layout2
350
78
  3
Model
350
74
  0
DICTIONARY
  5
10
102
{ACAD_REACTORS
330
C
102
}
330
C
100
AcDbDictionary
281
     1
  3
ByBlock
350
19
  3
ByLayer
350
11
  3
Global
350
21
  0
DICTIONARY
  5
66
102
{ACAD_REACTORS
330
C
102
}
330
C
100
AcDbDictionary
281
     1
  3
Standard
350
67
  0
DICTIONARY
  5
5F
102
{ACAD_REACTORS
330
C
102
}
330
C
100
AcDbDictionary
281
     1
  3
Standard
350
60
  0
DICTIONARY
  5
61
102
{ACAD_REACTORS
330
C
102
}
330
C
100
AcDbDictionary
281
     1
  0
ACDBDICTIONARYWDFLT
  5
E
102
{ACAD_REACTORS
330
C
102
}
330
C
100
AcDbDictionary
281
     1
  3
Normal
350
F
100
AcDbDictionaryWithDefault
340
F
  0
DICTIONARY
  5
42
102
{ACAD_REACTORS
330
C
102
}
330
C
100
AcDbDictionary
281
     1
  3
A0
350
43
  3
A1
350
44
  3
A2
350
45
  3
A3
350
46
  3
A4
350
47
  3
A5
350
48
  3
A6
350
49
  3
A7
350
4A
  3
A8
350
4B
  3
A9
350
4C
  3
B0
350
4D
  3
B1
350
4E
  3
B2
350
4F
  3
B3
350
50
  3
B4
350
51
  3
B5
350
52
  3
B6
350
53
  0
DICTIONARY
  5
68
102
{ACAD_REACTORS
330
C
102
}
330
C
100
AcDbDictionary
281
     1
  3
Imperial24
350
6A
  0
DICTIONARY
  5
64
102
{ACAD_REACTORS
330
C
102
}
330
C
100
AcDbDictionary
281
     1
  3
Standard
350
65
  0
DICTIONARY
  5
29
102
{ACAD_REACTORS
330
C
102
}
330
C
100
AcDbDictionary
281
     1
  3
2dWireframe
350
2F
  3
Basic
350
2E
  3
Brighten
350
35
  3
ColorChange
350
39
  3
Conceptual
350
32
  3
Dim
350
34
  3
EdgeColorOff
350
41
  3
Facepattern
350
38
  3
Flat
350
2A
  3
FlatWithEdges
350
2B
  3
Gouraud
350
2C
  3
GouraudWithEdges
350
2D
  3
Hidden
350
31
  3
JitterOff
350
3F
  3
Linepattern
350
37
  3
OverhangOff
350
40
  3
Realistic
350
33
  3
Shaded
350
3E
  3
Shaded with edges
350
3D
  3
Shades of Gray
350
3A
  3
Sketchy
350
3B
  3
Thicken
350
36
  3
Wireframe
350
30
  3
X-Ray
350
3C
  0
XRECORD
  5
240
102
{ACAD_REACTORS
330
C
102
}
330
C
100
AcDbXrecord
280
     1
 90
        1
330
65
  0
DICTIONARY
  5
238
102
{ACAD_REACTORS
330
C
102
}
330
C
100
AcDbDictionary
281
     1
  3
CANNOSCALE
350
23D
  3
CMLEADERSTYLE
350
23A
  3
CTABLESTYLE
350
239
  3
CVIEWDETAILSTYLE
350
23B
  3
CVIEWSECTIONSTYLE
350
23C
  0
ACDBDETAILVIEWSTYLE
  5
6C
102
{ACAD_REACTORS
330
6B
102
}
330
6B
100
AcDbModelDocViewStyle
 70
     0
  3
Imperial24
290
     1
100
AcDbDetailViewStyle
 70
     0
 71
     0
 90
        3
 71
     1
340
55
 62
   256
 40
0.24
340
0
 62
   256
 40
0.24
300

 40
0.36
280
     3
 71
     2
340
5D
 90
       25
 62
   256
 71
     3
340
55
 62
   256
 40
0.24
 90
        1
 40
0.75
 90
        1
300
%<\AcVar ViewType \f "%tc1">% %<\AcVar ViewDetailId>%\PSCALE %<\AcVar ViewScale \f "%sn">%
 71
     4
340
5D
 90
       25
 62
   256
340
5D
 90
       25
 62
   256
280
     0
  0
LAYOUT
  5
70
102
{ACAD_REACTORS
330
62
102
}
330
62
100
AcDbPlotSettings
  1

  2

  4

  6

 40
0.0
 41
0.0
 42
0.0
 43
0.0
 44
0.0
 45
0.0
 46
0.0
 47
0.0
 48
0.0
 49
0.0
140
0.0
141
0.0
142
1.0
143
1.0
 70
   688
 72
     0
 73
     0
 74
     5
  7

 75
    16
147
1.0
 76
     0
 77
     2
 78
   300
148
0.0
149
0.0
100
AcDbLayout
  1
Layout1
 70
     1
 71
     1
 10
0.0
 20
0.0
 11
12.0
 21
9.0
 12
0.0
 22
0.0
 32
0.0
 14
0.0
 24
0.0
 34
0.0
 15
0.0
 25
0.0
 35
0.0
146
0.0
 13
0.0
 23
0.0
 33
0.0
 16
1.0
 26
0.0
 36
0.0
 17
0.0
 27
1.0
 37
0.0
 76
     0
330
6D
  0
LAYOUT
  5
78
102
{ACAD_REACTORS
330
62
102
}
330
62
100
AcDbPlotSettings
  1

  2

  4

  6

 40
0.0
 41
0.0
 42
0.0
 43
0.0
 44
0.0
 45
0.0
 46
0.0
 47
0.0
 48
0.0
 49
0.0
140
0.0
141
0.0
142
1.0
143
1.0
 70
   688
 72
     0
 73
     0
 74
     5
  7

 75
    16
147
1.0
 76
     0
 77
     2
 78
   300
148
0.0
149
0.0
100
AcDbLayout
  1
Layout2
 70
     1
 71
     2
 10
0.0
 20
0.0
 11
12.0
 21
9.0
 12
0.0
 22
0.0
 32
0.0
 14
0.0
 24
0.0
 34
0.0
 15
0.0
 25
0.0
 35
0.0
146
0.0
 13
0.0
 23
0.0
 33
0.0
 16
1.0
 26
0.0
 36
0.0
 17
0.0
 27
1.0
 37
0.0
 76
     0
330
75
  0
LAYOUT
  5
74
102
{ACAD_REACTORS
330
62
102
}
330
62
100
AcDbPlotSettings
  1

  2

  4

  6

 40
0.0
 41
0.0
 42
0.0
 43
0.0
 44
0.0
 45
0.0
 46
0.0
 47
0.0
 48
0.0
 49
0.0
140
0.0
141
0.0
142
1.0
143
1.0
 70
  1712
 72
     0
 73
     0
 74
     0
  7

 75
     0
147
1.0
 76
     0
 77
     2
 78
   300
148
0.0
149
0.0
100
AcDbLayout
  1
Model
 70
     1
 71
     0
 10
0.0
 20
0.0
 11
12.0
 21
9.0
 12
0.0
 22
0.0
 32
0.0
 14
0.0
 24
0.0
 34
0.0
 15
0.0
 25
0.0
 35
0.0
146
0.0
 13
0.0
 23
0.0
 33
0.0
 16
1.0
 26
0.0
 36
0.0
 17
0.0
 27
1.0
 37
0.0
 76
     0
330
71
  0
MATERIAL
  5
19
102
{ACAD_XDICTIONARY
360
1A
102
}
102
{ACAD_REACTORS
330
10
102
}
330
10
100
AcDbMaterial
  1
ByBlock
 72
     0
 43
0.0208333333333333
 43
0.0
 43
0.0
 43
0.0
 43
0.0
 43
0.0208333333333333
 43
0.0
 43
0.0
 43
0.0
 43
0.0
 43
1.0
 43
0.0
 43
0.0
 43
0.0
 43
0.0
 43
1.0
 77
     0
 47
0.0208333333333333
 47
0.0
 47
0.0
 47
0.0
 47
0.0
 47
0.0208333333333333
 47
0.0
 47
0.0
 47
0.0
 47
0.0
 47
1.0
 47
0.0
 47
0.0
 47
0.0
 47
0.0
 47
1.0
171
     0
 49
0.0208333333333333
 49
0.0
 49
0.0
 49
0.0
 49
0.0
 49
0.0208333333333333
 49
0.0
 49
0.0
 49
0.0
 49
0.0
 49
1.0
 49
0.0
 49
0.0
 49
0.0
 49
0.0
 49
1.0
175
     0
142
0.0208333333333333
142
0.0
142
0.0
142
0.0
142
0.0
142
0.0208333333333333
142
0.0
142
0.0
142
0.0
142
0.0
142
1.0
142
0.0
142
0.0
142
0.0
142
0.0
142
1.0
179
     0
144
0.0208333333333333
144
0.0
144
0.0
144
0.0
144
0.0
144
0.0208333333333333
144
0.0
144
0.0
144
0.0
144
0.0
144
1.0
144
0.0
144
0.0
144
0.0
144
0.0
144
1.0
147
0.0208333333333333
147
0.0
147
0.0
147
0.0
147
0.0
147
0.0208333333333333
147
0.0
147
0.0
147
0.0
147
0.0
147
1.0
147
0.0
147
0.0
147
0.0
147
0.0
147
1.0
  0
MATERIAL
  5
11
102
{ACAD_XDICTIONARY
360
12
102
}
102
{ACAD_REACTORS
330
10
102
}
330
10
100
AcDbMaterial
  1
ByLayer
 72
     0
 43
0.0208333333333333
 43
0.0
 43
0.0
 43
0.0
 43
0.0
 43
0.0208333333333333
 43
0.0
 43
0.0
 43
0.0
 43
0.0
 43
1.0
 43
0.0
 43
0.0
 43
0.0
 43
0.0
 43
1.0
 77
     0
 47
0.0208333333333333
 47
0.0
 47
0.0
 47
0.0
 47
0.0
 47
0.0208333333333333
 47
0.0
 47
0.0
 47
0.0
 47
0.0
 47
1.0
 47
0.0
 47
0.0
 47
0.0
 47
0.0
 47
1.0
171
     0
 49
0.0208333333333333
 49
0.0
 49
0.0
 49
0.0
 49
0.0
 49
0.0208333333333333
 49
0.0
 49
0.0
 49
0.0
 49
0.0
 49
1.0
 49
0.0
 49
0.0
 49
0.0
 49
0.0
 49
1.0
175
     0
142
0.0208333333333333
142
0.0
142
0.0
142
0.0
142
0.0
142
0.0208333333333333
142
0.0
142
0.0
142
0.0
142
0.0
142
1.0
142
0.0
142
0.0
142
0.0
142
0.0
142
1.0
179
     0
144
0.0208333333333333
144
0.0
144
0.0
144
0.0
144
0.0
144
0.0208333333333333
144
0.0
144
0.0
144
0.0
144
0.0
144
1.0
144
0.0
144
0.0
144
0.0
144
0.0
144
1.0
147
0.0208333333333333
147
0.0
147
0.0
147
0.0
147
0.0
147
0.0208333333333333
147
0.0
147
0.0
147
0.0
147
0.0
147
1.0
147
0.0
147
0.0
147
0.0
147
0.0
147
1.0
  0
MATERIAL
  5
21
102
{ACAD_XDICTIONARY
360
22
102
}
102
{ACAD_REACTORS
330
10
102
}
330
10
100
AcDbMaterial
  1
Global
 72
     0
 43
0.0208333333333333
 43
0.0
 43
0.0
 43
0.0
 43
0.0
 43
0.0208333333333333
 43
0.0
 43
0.0
 43
0.0
 43
0.0
 43
1.0
 43
0.0
 43
0.0
 43
0.0
 43
0.0
 43
1.0
 77
     0
 47
0.0208333333333333
 47
0.0
 47
0.0
 47
0.0
 47
0.0
 47
0.0208333333333333
 47
0.0
 47
0.0
 47
0.0
 47
0.0
 47
1.0
 47
0.0
 47
0.0
 47
0.0
 47
0.0
 47
1.0
171
     0
 49
0.0208333333333333
 49
0.0
 49
0.0
 49
0.0
 49
0.0
 49
0.0208333333333333
 49
0.0
 49
0.0
 49
0.0
 49
0.0
 49
1.0
 49
0.0
 49
0.0
 49
0.0
 49
0.0
 49
1.0
175
     0
142
0.0208333333333333
142
0.0
142
0.0
142
0.0
142
0.0
142
0.0208333333333333
142
0.0
142
0.0
142
0.0
142
0.0
142
1.0
142
0.0
142
0.0
142
0.0
142
0.0
142
1.0
179
     0
144
0.0208333333333333
144
0.0
144
0.0
144
0.0
144
0.0
144
0.0208333333333333
144
0.0
144
0.0
144
0.0
144
0.0
144
1.0
144
0.0
144
0.0
144
0.0
144
0.0
144
1.0
147
0.0208333333333333
147
0.0
147
0.0
147
0.0
147
0.0
147
0.0208333333333333
147
0.0
147
0.0
147
0.0
147
0.0
147
1.0
147
0.0
147
0.0
147
0.0
147
0.0
147
1.0
  0
MLEADERSTYLE
  5
67
102
{ACAD_REACTORS
330
66
102
}
330
66
100
AcDbMLeaderStyle
179
     2
170
     2
171
     1
172
     0
 90
        2
 40
0.0
 41
0.0
173
     1
 91
-1056964608
340
5B
 92
       -2
290
     1
 42
0.09
291
     1
 43
0.36
  3
Standard
 44
0.18
300

342
55
174
     1
178
     6
175
     1
176
     0
 93
-1056964608
 45
0.18
292
     0
297
     0
 46
0.18
 94
-1056964608
 47
1.0
 49
1.0
140
1.0
293
     1
141
0.0
294
     1
177
     0
142
1.0
295
     1
296
     0
143
0.125
271
     0
272
     9
273
     9
298
     1
  0
MLINESTYLE
  5
60
102
{ACAD_REACTORS
330
5F
102
}
330
5F
100
AcDbMlineStyle
  2
STANDARD
 70
     0
  3

 62
   256
 51
90.0
 52
90.0
 71
     2
 49
0.5
 62
   256
  6
BYLAYER
 49
-0.5
 62
   256
  6
BYLAYER
  0
ACDBPLACEHOLDER
  5
F
102
{ACAD_REACTORS
330
E
102
}
330
E
  0
SCALE
  5
43
102
{ACAD_REACTORS
330
42
102
}
330
42
100
AcDbScale
 70
     0
300
1:1
140
1.0
141
1.0
290
     1
  0
SCALE
  5
44
102
{ACAD_REACTORS
330
42
102
}
330
42
100
AcDbScale
 70
     0
300
1/128" = 1'-0"
140
0.0078125
141
12.0
290
     0
  0
SCALE
  5
45
102
{ACAD_REACTORS
330
42
102
}
330
42
100
AcDbScale
 70
     0
300
1/64" = 1'-0"
140
0.015625
141
12.0
290
     0
  0
SCALE
  5
46
102
{ACAD_REACTORS
330
42
102
}
330
42
100
AcDbScale
 70
     0
300
1/32" = 1'-0"
140
0.03125
141
12.0
290
     0
  0
SCALE
  5
47
102
{ACAD_REACTORS
330
42
102
}
330
42
100
AcDbScale
 70
     0
300
1/16" = 1'-0"
140
0.0625
141
12.0
290
     0
  0
SCALE
  5
48
102
{ACAD_REACTORS
330
42
102
}
330
42
100
AcDbScale
 70
     0
300
3/32" = 1'-0"
140
0.09375
141
12.0
290
     0
  0
SCALE
  5
49
102
{ACAD_REACTORS
330
42
102
}
330
42
100
AcDbScale
 70
     0
300
1/8" = 1'-0"
140
0.125
141
12.0
290
     0
  0
SCALE
  5
4A
102
{ACAD_REACTORS
330
42
102
}
330
42
100
AcDbScale
 70
     0
300
3/16" = 1'-0"
140
0.1875
141
12.0
290
     0
  0
SCALE
  5
4B
102
{ACAD_REACTORS
330
42
102
}
330
42
100
AcDbScale
 70
     0
300
1/4" = 1'-0"
140
0.25
141
12.0
290
     0
  0
SCALE
  5
4C
102
{ACAD_REACTORS
330
42
102
}
330
42
100
AcDbScale
 70
     0
300
3/8" = 1'-0"
140
0.375
141
12.0
290
     0
  0
SCALE
  5
4D
102
{ACAD_REACTORS
330
42
102
}
330
42
100
AcDbScale
 70
     0
300
1/2" = 1'-0"
140
0.5
141
12.0
290
     0
  0
SCALE
  5
4E
102
{ACAD_REACTORS
330
42
102
}
330
42
100
AcDbScale
 70
     0
300
3/4" = 1'-0"
140
0.75
141
12.0
290
     0
  0
SCALE
  5
4F
102
{ACAD_REACTORS
330
42
102
}
330
42
100
AcDbScale
 70
     0
300
1" = 1'-0"
140
1.0
141
12.0
290
     0
  0
SCALE
  5
50
102
{ACAD_REACTORS
330
42
102
}
330
42
100
AcDbScale
 70
     0
300
1-1/2" = 1'-0"
140
1.5
141
12.0
290
     0
  0
SCALE
  5
51
102
{ACAD_REACTORS
330
42
102
}
330
42
100
AcDbScale
 70
     0
300
3" = 1'-0"
140
3.0
141
12.0
290
     0
  0
SCALE
  5
52
102
{ACAD_REACTORS
330
42
102
}
330
42
100
AcDbScale
 70
     0
300
6" = 1'-0"
140
6.0
141
12.0
290
     0
  0
SCALE
  5
53
102
{ACAD_REACTORS
330
42
102
}
330
42
100
AcDbScale
 70
     0
300
1'-0" = 1'-0"
140
12.0
141
12.0
290
     0
  0
ACDBSECTIONVIEWSTYLE
  5
6A
102
{ACAD_REACTORS
330
68
102
}
330
68
100
AcDbModelDocViewStyle
 70
     0
  3
Imperial24
290
     1
100
AcDbSectionViewStyle
 70
     0
 71
     0
 90
       78
 71
     1
340
55
 62
   256
 40
0.24
340
0
340
0
 62
   256
 40
0.24
300
I, O, Q, S, X, Z
 40
0.48
 90
        3
 40
0.18
 90
        1
 71
     2
340
69
 90
       25
 62
   256
340
5D
 90
       50
 62
   256
 40
0.24
 40
0.0
 40
0.24
 71
     3
340
55
 62
   256
 40
0.24
 90
        1
 40
0.75
 90
        1
300
%<\AcVar ViewType \f "%tc1">% %<\AcVar ViewSectionStartId>%-%<\AcVar ViewSectionEndId>%\PSCALE %<\AcVar ViewScale \f "%sn">%
 71
     4
 62
   256
 62
   257
300
ANSI31
 40
1.0
 90
        0
290
     0
290
     0
 90
        6
 40
0.0
 40
1.570796326794896
 40
0.2617993877991494
 40
1.308996938995747
 40
-0.2617993877991494
 40
1.832595714594046
  0
TABLESTYLE
  5
65
102
{ACAD_XDICTIONARY
360
23E
102
}
102
{ACAD_REACTORS
330
64
102
}
330
64
100
AcDbTableStyle
280
     0
  3
Standard
 70
     0
 71
     0
 40
0.06
 41
0.06
280
     0
281
     0
  7
Standard
140
0.18
170
     2
 62
     0
 63
     7
283
     0
 90
      512
 91
        0
  1

274
    -2
284
     1
 64
     0
275
    -2
285
     1
 65
     0
276
    -2
286
     1
 66
     0
277
    -2
287
     1
 67
     0
278
    -2
288
     1
 68
     0
279
    -2
289
     1
 69
     0
  7
Standard
140
0.25
170
     5
 62
     0
 63
     7
283
     0
 90
      512
 91
        0
  1

274
    -2
284
     1
 64
     0
275
    -2
285
     1
 65
     0
276
    -2
286
     1
 66
     0
277
    -2
287
     1
 67
     0
278
    -2
288
     1
 68
     0
279
    -2
289
     1
 69
     0
  7
Standard
140
0.18
170
     5
 62
     0
 63
     7
283
     0
 90
      512
 91
        0
  1

274
    -2
284
     1
 64
     0
275
    -2
285
     1
 65
     0
276
    -2
286
     1
 66
     0
277
    -2
287
     1
 67
     0
278
    -2
288
     1
 68
     0
279
    -2
289
     1
 69
     0
  0
VISUALSTYLE
  5
2F
102
{ACAD_REACTORS
330
29
102
}
330
29
100
AcDbVisualStyle
  2
2dWireframe
 70
     4
177
     3
291
     0
 70
    58
 90
        0
176
     1
 90
        2
176
     1
 90
        0
176
     1
 90
        0
176
     1
 40
0.6
176
     1
 40
30.0
176
     1
 62
     7
420
 16777215
176
     1
 90
        1
176
     1
 90
        4
176
     1
 62
     7
176
     1
 62
   257
176
     1
 90
        1
176
     1
 90
        1
176
     1
 40
1.0
176
     1
 90
        0
176
     1
 62
   257
176
     1
 40
1.0
176
     1
 90
        1
176
     1
 90
        6
176
     1
 90
        2
176
     1
 62
     7
176
     1
 90
        5
176
     1
 90
        0
176
     1
 90
        0
176
     1
290
     0
176
     1
 90
        1
176
     1
 40
0.0
176
     1
 90
        0
176
     1
290
     1
176
     1
290
     1
176
     1
290
     0
176
     1
290
     0
176
     1
290
     0
176
     1
290
     0
176
     1
290
     0
176
     1
290
     0
176
     1
290
     0
176
     1
 90
       50
176
     1
 40
0.0
176
     1
 40
1.0
176
     1
 90
        0
176
     1
 62
    18
420
        0
176
     1
 90
       50
176
     1
 90
        3
176
     1
 62
     5
420
      255
176
     1
290
     0
176
     1
 90
       50
176
     1
 90
       50
176
     1
 90
       50
176
     1
290
     0
176
     1
 90
       50
176
     1
 62
   256
176
     0
 40
1.0
176
     0
 90
        2
176
     1
  1
strokes_ogs.tif
176
     1
290
     0
176
     1
 40
1.0
176
     1
 40
1.0
176
     1
  0
VISUALSTYLE
  5
2E
102
{ACAD_REACTORS
330
29
102
}
330
29
100
AcDbVisualStyle
  2
Basic
 70
     7
177
     3
291
     1
 70
    58
 90
        1
176
     1
 90
        0
176
     1
 90
        1
176
     1
 90
        0
176
     1
 40
0.6
176
     1
 40
30.0
176
     1
 62
     7
420
 16777215
176
     1
 90
        0
176
     1
 90
        4
176
     1
 62
     7
176
     1
 62
   257
176
     1
 90
        1
176
     1
 90
        1
176
     1
 40
1.0
176
     1
 90
        8
176
     1
 62
     7
176
     1
 40
1.0
176
     1
 90
        1
176
     1
 90
        6
176
     1
 90
        2
176
     1
 62
     7
176
     1
 90
        5
176
     1
 90
        0
176
     1
 90
        0
176
     1
290
     0
176
     1
 90
        1
176
     1
 40
0.0
176
     1
 90
        0
176
     1
290
     0
176
     1
290
     1
176
     1
290
     1
176
     1
290
     0
176
     1
290
     0
176
     1
290
     0
176
     1
290
     0
176
     1
290
     0
176
     1
290
     0
176
     1
 90
       50
176
     1
 40
0.0
176
     1
 40
1.0
176
     1
 90
        0
176
     1
 62
    18
420
        0
176
     1
 90
       50
176
     1
 90
        3
176
     1
 62
     5
420
      255
176
     1
290
     0
176
     1
 90
       50
176
     1
 90
       50
176
     1
 90
       50
176
     1
290
     0
176
     1
 90
       50
176
     1
 62
   256
176
     0
 40
1.0
176
     0
 90
        2
176
     1
  1
strokes_ogs.tif
176
     1
290
     0
176
     1
 40
1.0
176
     1
 40
1.0
176
     1
  0
VISUALSTYLE
  5
35
102
{ACAD_REACTORS
330
29
102
}
330
29
100
AcDbVisualStyle
  2
Brighten
 70
    12
177
     3
291
     1
 70
    58
 90
        2
176
     1
 90
        2
176
     1
 90
        0
176
     1
 90
        0
176
     1
 40
0.6
176
     1
 40
30.0
176
     1
 62
     7
420
 16777215
176
     1
 90
        1
176
     1
 90
        4
176
     1
 62
     7
176
     1
 62
   257
176
     1
 90
        1
176
     1
 90
        1
176
     1
 40
1.0
176
     1
 90
        8
176
     1
 62
     7
176
     1
 40
1.0
176
     1
 90
        1
176
     1
 90
        6
176
     1
 90
        2
176
     1
 62
     7
176
     1
 90
        5
176
     1
 90
        0
176
     1
 90
        0
176
     1
290
     0
176
     1
 90
        1
176
     1
 40
50.0
176
     1
 90
        0
176
     1
290
     0
176
     1
290
     1
176
     1
290
     1
176
     1
290
     0
176
     1
290
     0
176
     1
290
     0
176
     1
290
     0
176
     1
290
     0
176
     1
290
     0
176
     1
 90
       50
176
     1
 40
0.0
176
     1
 40
1.0
176
     1
 90
        0
176
     1
 62
    18
420
        0
176
     1
 90
       50
176
     1
 90
        3
176
     1
 62
     5
420
      255
176
     1
290
     0
176
     1
 90
       50
176
     1
 90
       50
176
     1
 90
       50
176
     1
290
     0
176
     1
 90
       50
176
     1
 62
   256
176
     0
 40
1.0
176
     0
 90
        2
176
     1
  1
strokes_ogs.tif
176
     1
290
     0
176
     1
 40
1.0
176
     1
 40
1.0
176
     1
  0
VISUALSTYLE
  5
39
102
{ACAD_REACTORS
330
29
102
}
330
29
100
AcDbVisualStyle
  2
ColorChange
 70
    16
177
     3
291
     1
 70
    58
 90
        2
176
     1
 90
        2
176
     1
 90
        3
176
     1
 90
        0
176
     1
 40
0.6
176
     1
 40
30.0
176
     1
 62
     8
420
  8421504
176
     1
 90
        1
176
     1
 90
        4
176
     1
 62
     7
176
     1
 62
   257
176
     1
 90
        1
176
     1
 90
        1
176
     1
 40
1.0
176
     1
 90
        8
176
     1
 62
     8
420
  8421504
176
     1
 40
1.0
176
     1
 90
        1
176
     1
 90
        6
176
     1
 90
        2
176
     1
 62
     7
176
     1
 90
        5
176
     1
 90
        0
176
     1
 90
        0
176
     1
290
     0
176
     1
 90
        1
176
     1
 40
0.0
176
     1
 90
        0
176
     1
290
     0
176
     1
290
     1
176
     1
290
     1
176
     1
290
     0
176
     1
290
     0
176
     1
290
     0
176
     1
290
     0
176
     1
290
     0
176
     1
290
     0
176
     1
 90
       50
176
     1
 40
0.0
176
     1
 40
1.0
176
     1
 90
        0
176
     1
 62
    18
420
        0
176
     1
 90
       50
176
     1
 90
        3
176
     1
 62
     5
420
      255
176
     1
290
     0
176
     1
 90
       50
176
     1
 90
       50
176
     1
 90
       50
176
     1
290
     0
176
     1
 90
       50
176
     1
 62
   256
176
     0
 40
1.0
176
     0
 90
        2
176
     1
  1
strokes_ogs.tif
176
     1
290
     0
176
     1
 40
1.0
176
     1
 40
1.0
176
     1
  0
VISUALSTYLE
  5
32
102
{ACAD_REACTORS
330
29
102
}
330
29
100
AcDbVisualStyle
  2
Conceptual
 70
     9
177
     3
291
     0
 70
    58
 90
        3
176
     1
 90
        2
176
     1
 90
        0
176
     1
 90
        0
176
     1
 40
0.6
176
     1
 40
30.0
176
     1
 62
     7
420
 16777215
176
     1
 90
        2
176
     1
 90
        2
176
     1
 62
     7
176
     1
 62
   257
176
     1
 90
        1
176
     1
 90
        1
176
     1
 40
179.0
176
     1
 90
        8
176
     1
 62
     7
176
     1
 40
1.0
176
     1
 90
        1
176
     1
 90
        6
176
     1
 90
        2
176
     1
 62
     7
176
     1
 90
        3
176
     1
 90
        0
176
     1
 90
        0
176
     1
290
     0
176
     1
 90
        1
176
     1
 40
0.0
176
     1
 90
        0
176
     1
290
     0
176
     1
290
     1
176
     1
290
     1
176
     1
290
     0
176
     1
290
     0
176
     1
290
     0
176
     1
290
     0
176
     1
290
     0
176
     1
290
     0
176
     1
 90
       50
176
     1
 40
0.0
176
     1
 40
1.0
176
     1
 90
        0
176
     1
 62
    18
420
        0
176
     1
 90
       50
176
     1
 90
        3
176
     1
 62
     5
420
      255
176
     1
290
     0
176
     1
 90
       50
176
     1
 90
       50
176
     1
 90
       50
176
     1
290
     0
176
     1
 90
       50
176
     1
 62
   256
176
     0
 40
1.0
176
     0
 90
        2
176
     1
  1
strokes_ogs.tif
176
     1
290
     0
176
     1
 40
1.0
176
     1
 40
1.0
176
     1
  0
VISUALSTYLE
  5
34
102
{ACAD_REACTORS
330
29
102
}
330
29
100
AcDbVisualStyle
  2
Dim
 70
    11
177
     3
291
     1
 70
    58
 90
        2
176
     1
 90
        2
176
     1
 90
        0
176
     1
 90
        0
176
     1
 40
0.6
176
     1
 40
30.0
176
     1
 62
     7
420
 16777215
176
     1
 90
        1
176
     1
 90
        4
176
     1
 62
     7
176
     1
 62
   257
176
     1
 90
        1
176
     1
 90
        1
176
     1
 40
1.0
176
     1
 90
        8
176
     1
 62
     7
176
     1
 40
1.0
176
     1
 90
        1
176
     1
 90
        6
176
     1
 90
        2
176
     1
 62
     7
176
     1
 90
        5
176
     1
 90
        0
176
     1
 90
        0
176
     1
290
     0
176
     1
 90
        1
176
     1
 40
-50.0
176
     1
 90
        0
176
     1
290
     0
176
     1
290
     1
176
     1
290
     1
176
     1
290
     0
176
     1
290
     0
176
     1
290
     0
176
     1
290
     0
176
     1
290
     0
176
     1
290
     0
176
     1
 90
       50
176
     1
 40
0.0
176
     1
 40
1.0
176
     1
 90
        0
176
     1
 62
    18
420
        0
176
     1
 90
       50
176
     1
 90
        3
176
     1
 62
     5
420
      255
176
     1
290
     0
176
     1
 90
       50
176
     1
 90
       50
176
     1
 90
       50
176
     1
290
     0
176
     1
 90
       50
176
     1
 62
   256
176
     0
 40
1.0
176
     0
 90
        2
176
     1
  1
strokes_ogs.tif
176
     1
290
     0
176
     1
 40
1.0
176
     1
 40
1.0
176
     1
  0
VISUALSTYLE
  5
41
102
{ACAD_REACTORS
330
29
102
}
330
29
100
AcDbVisualStyle
  2
EdgeColorOff
 70
    22
177
     3
291
     1
 70
    58
 90
        2
176
     0
 90
        2
176
     0
 90
        0
176
     0
 90
        0
176
     0
 40
0.6
176
     0
 40
30.0
176
     0
 62
     7
420
 16777215
176
     0
 90
        1
176
     0
 90
        4
176
     0
 62
     7
176
     0
 62
   257
176
     0
 90
        1
176
     0
 90
        1
176
     0
 40
1.0
176
     0
 90
        8
176
     2
 62
     7
176
     0
 40
1.0
176
     0
 90
        1
176
     0
 90
        6
176
     0
 90
        2
176
     0
 62
     7
176
     0
 90
        5
176
     0
 90
        0
176
     0
 90
        0
176
     0
290
     0
176
     0
 90
        1
176
     0
 40
0.0
176
     0
 90
        0
176
     0
290
     0
176
     0
290
     1
176
     0
290
     1
176
     0
290
     0
176
     0
290
     0
176
     0
290
     0
176
     0
290
     0
176
     0
290
     0
176
     0
290
     0
176
     0
 90
       50
176
     0
 40
0.0
176
     0
 40
1.0
176
     0
 90
        0
176
     0
 62
    18
420
        0
176
     0
 90
       50
176
     0
 90
        3
176
     0
 62
     5
420
      255
176
     0
290
     0
176
     0
 90
       50
176
     0
 90
       50
176
     0
 90
       50
176
     0
290
     0
176
     0
 90
       50
176
     0
 62
   256
176
     0
 40
1.0
176
     0
 90
        2
176
     0
  1
strokes_ogs.tif
176
     0
290
     0
176
     0
 40
1.0
176
     0
 40
1.0
176
     0
  0
VISUALSTYLE
  5
38
102
{ACAD_REACTORS
330
29
102
}
330
29
100
AcDbVisualStyle
  2
Facepattern
 70
    15
177
     3
291
     1
 70
    58
 90
        2
176
     1
 90
        2
176
     1
 90
        0
176
     1
 90
        0
176
     1
 40
0.6
176
     1
 40
30.0
176
     1
 62
     7
420
 16777215
176
     1
 90
        1
176
     1
 90
        4
176
     1
 62
     7
176
     1
 62
   257
176
     1
 90
        1
176
     1
 90
        1
176
     1
 40
1.0
176
     1
 90
        8
176
     1
 62
     7
176
     1
 40
1.0
176
     1
 90
        1
176
     1
 90
        6
176
     1
 90
        2
176
     1
 62
     7
176
     1
 90
        5
176
     1
 90
        0
176
     1
 90
        0
176
     1
290
     0
176
     1
 90
        1
176
     1
 40
0.0
176
     1
 90
        0
176
     1
290
     0
176
     1
290
     1
176
     1
290
     1
176
     1
290
     0
176
     1
290
     0
176
     1
290
     0
176
     1
290
     0
176
     1
290
     0
176
     1
290
     0
176
     1
 90
       50
176
     1
 40
0.0
176
     1
 40
1.0
176
     1
 90
        0
176
     1
 62
    18
420
        0
176
     1
 90
       50
176
     1
 90
        3
176
     1
 62
     5
420
      255
176
     1
290
     0
176
     1
 90
       50
176
     1
 90
       50
176
     1
 90
       50
176
     1
290
     0
176
     1
 90
       50
176
     1
 62
   256
176
     0
 40
1.0
176
     0
 90
        2
176
     1
  1
strokes_ogs.tif
176
     1
290
     0
176
     1
 40
1.0
176
     1
 40
1.0
176
     1
  0
VISUALSTYLE
  5
2A
102
{ACAD_REACTORS
330
29
102
}
330
29
100
AcDbVisualStyle
  2
Flat
 70
     0
177
     3
291
     1
 70
    58
 90
        2
176
     1
 90
        1
176
     1
 90
        1
176
     1
 90
        2
176
     1
 40
0.6
176
     1
 40
30.0
176
     1
 62
     7
420
 16777215
176
     1
 90
        0
176
     1
 90
        0
176
     1
 62
     7
176
     1
 62
   257
176
     1
 90
        1
176
     1
 90
        1
176
     1
 40
1.0
176
     1
 90
        8
176
     1
 62
     7
176
     1
 40
1.0
176
     1
 90
        1
176
     1
 90
        6
176
     1
 90
        2
176
     1
 62
     7
176
     1
 90
        5
176
     1
 90
        0
176
     1
 90
        0
176
     1
290
     0
176
     1
 90
       13
176
     1
 40
0.0
176
     1
 90
        0
176
     1
290
     0
176
     1
290
     1
176
     1
290
     1
176
     1
290
     0
176
     1
290
     0
176
     1
290
     0
176
     1
290
     0
176
     1
290
     0
176
     1
290
     0
176
     1
 90
       50
176
     1
 40
0.0
176
     1
 40
1.0
176
     1
 90
        0
176
     1
 62
    18
420
        0
176
     1
 90
       50
176
     1
 90
        3
176
     1
 62
     5
420
      255
176
     1
290
     0
176
     1
 90
       50
176
     1
 90
       50
176
     1
 90
       50
176
     1
290
     0
176
     1
 90
       50
176
     1
 62
   256
176
     0
 40
1.0
176
     0
 90
        2
176
     1
  1
strokes_ogs.tif
176
     1
290
     0
176
     1
 40
1.0
176
     1
 40
1.0
176
     1
  0
VISUALSTYLE
  5
2B
102
{ACAD_REACTORS
330
29
102
}
330
29
100
AcDbVisualStyle
  2
FlatWithEdges
 70
     1
177
     3
291
     1
 70
    58
 90
        2
176
     1
 90
        1
176
     1
 90
        1
176
     1
 90
        2
176
     1
 40
0.6
176
     1
 40
30.0
176
     1
 62
     7
420
 16777215
176
     1
 90
        1
176
     1
 90
        0
176
     1
 62
     7
176
     1
 62
   257
176
     1
 90
        1
176
     1
 90
        1
176
     1
 40
1.0
176
     1
 90
        0
176
     1
 62
   257
176
     1
 40
1.0
176
     1
 90
        1
176
     1
 90
        6
176
     1
 90
        2
176
     1
 62
     7
176
     1
 90
        5
176
     1
 90
        0
176
     1
 90
        0
176
     1
290
     0
176
     1
 90
       13
176
     1
 40
0.0
176
     1
 90
        0
176
     1
290
     0
176
     1
290
     1
176
     1
290
     1
176
     1
290
     0
176
     1
290
     0
176
     1
290
     0
176
     1
290
     0
176
     1
290
     0
176
     1
290
     0
176
     1
 90
       50
176
     1
 40
0.0
176
     1
 40
1.0
176
     1
 90
        0
176
     1
 62
    18
420
        0
176
     1
 90
       50
176
     1
 90
        3
176
     1
 62
     5
420
      255
176
     1
290
     0
176
     1
 90
       50
176
     1
 90
       50
176
     1
 90
       50
176
     1
290
     0
176
     1
 90
       50
176
     1
 62
   256
176
     0
 40
1.0
176
     0
 90
        2
176
     1
  1
strokes_ogs.tif
176
     1
290
     0
176
     1
 40
1.0
176
     1
 40
1.0
176
     1
  0
VISUALSTYLE
  5
2C
102
{ACAD_REACTORS
330
29
102
}
330
29
100
AcDbVisualStyle
  2
Gouraud
 70
     2
177
     3
291
     1
 70
    58
 90
        2
176
     1
 90
        2
176
     1
 90
        1
176
     1
 90
        2
176
     1
 40
0.6
176
     1
 40
30.0
176
     1
 62
     7
420
 16777215
176
     1
 90
        0
176
     1
 90
        0
176
     1
 62
     7
176
     1
 62
   257
176
     1
 90
        1
176
     1
 90
        1
176
     1
 40
1.0
176
     1
 90
        0
176
     1
 62
     7
176
     1
 40
1.0
176
     1
 90
        1
176
     1
 90
        6
176
     1
 90
        2
176
     1
 62
     7
176
     1
 90
        5
176
     1
 90
        0
176
     1
 90
        0
176
     1
290
     0
176
     1
 90
       13
176
     1
 40
0.0
176
     1
 90
        0
176
     1
290
     0
176
     1
290
     1
176
     1
290
     1
176
     1
290
     0
176
     1
290
     0
176
     1
290
     0
176
     1
290
     0
176
     1
290
     0
176
     1
290
     0
176
     1
 90
       50
176
     1
 40
0.0
176
     1
 40
1.0
176
     1
 90
        0
176
     1
 62
    18
420
        0
176
     1
 90
       50
176
     1
 90
        3
176
     1
 62
     5
420
      255
176
     1
290
     0
176
     1
 90
       50
176
     1
 90
       50
176
     1
 90
       50
176
     1
290
     0
176
     1
 90
       50
176
     1
 62
   256
176
     0
 40
1.0
176
     0
 90
        2
176
     1
  1
strokes_ogs.tif
176
     1
290
     0
176
     1
 40
1.0
176
     1
 40
1.0
176
     1
  0
VISUALSTYLE
  5
2D
102
{ACAD_REACTORS
330
29
102
}
330
29
100
AcDbVisualStyle
  2
GouraudWithEdges
 70
     3
177
     3
291
     1
 70
    58
 90
        2
176
     1
 90
        2
176
     1
 90
        1
176
     1
 90
        2
176
     1
 40
0.6
176
     1
 40
30.0
176
     1
 62
     7
420
 16777215
176
     1
 90
        1
176
     1
 90
        0
176
     1
 62
     7
176
     1
 62
   257
176
     1
 90
        1
176
     1
 90
        1
176
     1
 40
1.0
176
     1
 90
        0
176
     1
 62
   257
176
     1
 40
1.0
176
     1
 90
        1
176
     1
 90
        6
176
     1
 90
        2
176
     1
 62
     7
176
     1
 90
        5
176
     1
 90
        0
176
     1
 90
        0
176
     1
290
     0
176
     1
 90
       13
176
     1
 40
0.0
176
     1
 90
        0
176
     1
290
     0
176
     1
290
     1
176
     1
290
     1
176
     1
290
     0
176
     1
290
     0
176
     1
290
     0
176
     1
290
     0
176
     1
290
     0
176
     1
290
     0
176
     1
 90
       50
176
     1
 40
0.0
176
     1
 40
1.0
176
     1
 90
        0
176
     1
 62
    18
420
        0
176
     1
 90
       50
176
     1
 90
        3
176
     1
 62
     5
420
      255
176
     1
290
     0
176
     1
 90
       50
176
     1
 90
       50
176
     1
 90
       50
176
     1
290
     0
176
     1
 90
       50
176
     1
 62
   256
176
     0
 40
1.0
176
     0
 90
        2
176
     1
  1
strokes_ogs.tif
176
     1
290
     0
176
     1
 40
1.0
176
     1
 40
1.0
176
     1
  0
VISUALSTYLE
  5
31
102
{ACAD_REACTORS
330
29
102
}
330
29
100
AcDbVisualStyle
  2
Hidden
 70
     6
177
     3
291
     0
 70
    58
 90
        1
176
     1
 90
        2
176
     1
 90
        2
176
     1
 90
        0
176
     1
 40
0.6
176
     1
 40
30.0
176
     1
 62
     7
420
 16777215
176
     1
 90
        2
176
     1
 90
        2
176
     1
 62
     7
176
     1
 62
   257
176
     1
 90
        2
176
     1
 90
        1
176
     1
 40
40.0
176
     1
 90
        0
176
     1
 62
   257
176
     1
 40
1.0
176
     1
 90
        1
176
     1
 90
        6
176
     1
 90
        2
176
     1
 62
     7
176
     1
 90
        3
176
     1
 90
        0
176
     1
 90
        0
176
     1
290
     0
176
     1
 90
        1
176
     1
 40
0.0
176
     1
 90
        0
176
     1
290
     0
176
     1
290
     1
176
     1
290
     1
176
     1
290
     0
176
     1
290
     0
176
     1
290
     0
176
     1
290
     0
176
     1
290
     0
176
     1
290
     0
176
     1
 90
       50
176
     1
 40
0.0
176
     1
 40
1.0
176
     1
 90
        0
176
     1
 62
    18
420
        0
176
     1
 90
       50
176
     1
 90
        3
176
     1
 62
     5
420
      255
176
     1
290
     0
176
     1
 90
       50
176
     1
 90
       50
176
     1
 90
       50
176
     1
290
     0
176
     1
 90
       50
176
     1
 62
   256
176
     0
 40
1.0
176
     0
 90
        2
176
     1
  1
strokes_ogs.tif
176
     1
290
     0
176
     1
 40
1.0
176
     1
 40
1.0
176
     1
  0
VISUALSTYLE
  5
3F
102
{ACAD_REACTORS
330
29
102
}
330
29
100
AcDbVisualStyle
  2
JitterOff
 70
    20
177
     3
291
     1
 70
    58
 90
        2
176
     0
 90
        2
176
     0
 90
        0
176
     0
 90
        0
176
     0
 40
0.6
176
     0
 40
30.0
176
     0
 62
     7
420
 16777215
176
     0
 90
        1
176
     0
 90
        4
176
     0
 62
     7
176
     0
 62
   257
176
     0
 90
        1
176
     0
 90
        1
176
     0
 40
1.0
176
     0
 90
       10
176
     2
 62
     7
176
     0
 40
1.0
176
     0
 90
        1
176
     0
 90
        6
176
     0
 90
        2
176
     0
 62
     7
176
     0
 90
        5
176
     0
 90
        0
176
     0
 90
        0
176
     0
290
     0
176
     0
 90
        1
176
     0
 40
0.0
176
     0
 90
        0
176
     0
290
     0
176
     0
290
     1
176
     0
290
     1
176
     0
290
     0
176
     0
290
     0
176
     0
290
     0
176
     0
290
     0
176
     0
290
     0
176
     0
290
     0
176
     0
 90
       50
176
     0
 40
0.0
176
     0
 40
1.0
176
     0
 90
        0
176
     0
 62
    18
420
        0
176
     0
 90
       50
176
     0
 90
        3
176
     0
 62
     5
420
      255
176
     0
290
     0
176
     0
 90
       50
176
     0
 90
       50
176
     0
 90
       50
176
     0
290
     0
176
     0
 90
       50
176
     0
 62
   256
176
     0
 40
1.0
176
     0
 90
        2
176
     0
  1
strokes_ogs.tif
176
     0
290
     0
176
     0
 40
1.0
176
     0
 40
1.0
176
     0
  0
VISUALSTYLE
  5
37
102
{ACAD_REACTORS
330
29
102
}
330
29
100
AcDbVisualStyle
  2
Linepattern
 70
    14
177
     3
291
     1
 70
    58
 90
        2
176
     1
 90
        2
176
     1
 90
        0
176
     1
 90
        0
176
     1
 40
0.6
176
     1
 40
30.0
176
     1
 62
     7
420
 16777215
176
     1
 90
        1
176
     1
 90
        4
176
     1
 62
     7
176
     1
 62
   257
176
     1
 90
        7
176
     1
 90
        7
176
     1
 40
1.0
176
     1
 90
        8
176
     1
 62
     7
176
     1
 40
1.0
176
     1
 90
        1
176
     1
 90
        6
176
     1
 90
        2
176
     1
 62
     7
176
     1
 90
        5
176
     1
 90
        0
176
     1
 90
        0
176
     1
290
     0
176
     1
 90
        1
176
     1
 40
0.0
176
     1
 90
        0
176
     1
290
     0
176
     1
290
     1
176
     1
290
     1
176
     1
290
     0
176
     1
290
     0
176
     1
290
     0
176
     1
290
     0
176
     1
290
     0
176
     1
290
     0
176
     1
 90
       50
176
     1
 40
0.0
176
     1
 40
1.0
176
     1
 90
        0
176
     1
 62
    18
420
        0
176
     1
 90
       50
176
     1
 90
        3
176
     1
 62
     5
420
      255
176
     1
290
     0
176
     1
 90
       50
176
     1
 90
       50
176
     1
 90
       50
176
     1
290
     0
176
     1
 90
       50
176
     1
 62
   256
176
     0
 40
1.0
176
     0
 90
        2
176
     1
  1
strokes_ogs.tif
176
     1
290
     0
176
     1
 40
1.0
176
     1
 40
1.0
176
     1
  0
VISUALSTYLE
  5
40
102
{ACAD_REACTORS
330
29
102
}
330
29
100
AcDbVisualStyle
  2
OverhangOff
 70
    21
177
     3
291
     1
 70
    58
 90
        2
176
     0
 90
        2
176
     0
 90
        0
176
     0
 90
        0
176
     0
 40
0.6
176
     0
 40
30.0
176
     0
 62
     7
420
 16777215
176
     0
 90
        1
176
     0
 90
        4
176
     0
 62
     7
176
     0
 62
   257
176
     0
 90
        1
176
     0
 90
        1
176
     0
 40
1.0
176
     0
 90
        9
176
     2
 62
     7
176
     0
 40
1.0
176
     0
 90
        1
176
     0
 90
        6
176
     0
 90
        2
176
     0
 62
     7
176
     0
 90
        5
176
     0
 90
        0
176
     0
 90
        0
176
     0
290
     0
176
     0
 90
        1
176
     0
 40
0.0
176
     0
 90
        0
176
     0
290
     0
176
     0
290
     1
176
     0
290
     1
176
     0
290
     0
176
     0
290
     0
176
     0
290
     0
176
     0
290
     0
176
     0
290
     0
176
     0
290
     0
176
     0
 90
       50
176
     0
 40
0.0
176
     0
 40
1.0
176
     0
 90
        0
176
     0
 62
    18
420
        0
176
     0
 90
       50
176
     0
 90
        3
176
     0
 62
     5
420
      255
176
     0
290
     0
176
     0
 90
       50
176
     0
 90
       50
176
     0
 90
       50
176
     0
290
     0
176
     0
 90
       50
176
     0
 62
   256
176
     0
 40
1.0
176
     0
 90
        2
176
     0
  1
strokes_ogs.tif
176
     0
290
     0
176
     0
 40
1.0
176
     0
 40
1.0
176
     0
  0
VISUALSTYLE
  5
33
102
{ACAD_REACTORS
330
29
102
}
330
29
100
AcDbVisualStyle
  2
Realistic
 70
     8
177
     3
291
     0
 70
    58
 90
        2
176
     1
 90
        3
176
     1
 90
        0
176
     1
 90
        2
176
     1
 40
0.6
176
     1
 40
30.0
176
     1
 62
     7
420
 16777215
176
     1
 90
        0
176
     1
 90
        0
176
     1
 62
     7
176
     1
 62
   257
176
     1
 90
        1
176
     1
 90
        1
176
     1
 40
1.0
176
     1
 90
        8
176
     1
 62
   257
176
     1
 40
1.0
176
     1
 90
        1
176
     1
 90
        6
176
     1
 90
        2
176
     1
 62
     7
176
     1
 90
        3
176
     1
 90
        0
176
     1
 90
        0
176
     1
290
     0
176
     1
 90
       13
176
     1
 40
0.0
176
     1
 90
        0
176
     1
290
     0
176
     1
290
     1
176
     1
290
     1
176
     1
290
     0
176
     1
290
     0
176
     1
290
     0
176
     1
290
     0
176
     1
290
     0
176
     1
290
     0
176
     1
 90
       50
176
     1
 40
0.0
176
     1
 40
1.0
176
     1
 90
        0
176
     1
 62
    18
420
        0
176
     1
 90
       50
176
     1
 90
        3
176
     1
 62
     5
420
      255
176
     1
290
     0
176
     1
 90
       50
176
     1
 90
       50
176
     1
 90
       50
176
     1
290
     0
176
     1
 90
       50
176
     1
 62
   256
176
     0
 40
1.0
176
     0
 90
        2
176
     1
  1
strokes_ogs.tif
176
     1
290
     0
176
     1
 40
1.0
176
     1
 40
1.0
176
     1
  0
VISUALSTYLE
  5
3E
102
{ACAD_REACTORS
330
29
102
}
330
29
100
AcDbVisualStyle
  2
Shaded
 70
    27
177
     3
291
     0
 70
    58
 90
        2
176
     1
 90
        2
176
     1
 90
        1
176
     1
 90
        2
176
     1
 40
0.6
176
     1
 40
30.0
176
     1
 62
     7
420
 16777215
176
     1
 90
        0
176
     1
 90
        4
176
     1
 62
     7
176
     1
 62
   257
176
     1
 90
        1
176
     1
 90
        1
176
     1
 40
1.0
176
     1
 90
        8
176
     1
 62
   257
176
     1
 40
1.0
176
     1
 90
        1
176
     1
 90
        6
176
     1
 90
        2
176
     1
 62
     8
420
  7895160
176
     1
 90
        3
176
     1
 90
        0
176
     1
 90
        0
176
     1
290
     0
176
     1
 90
        5
176
     1
 40
0.0
176
     1
 90
        0
176
     1
290
     0
176
     1
290
     1
176
     1
290
     1
176
     1
290
     0
176
     1
290
     0
176
     1
290
     0
176
     1
290
     0
176
     1
290
     0
176
     1
290
     0
176
     1
 90
       50
176
     1
 40
0.0
176
     1
 40
1.0
176
     1
 90
        0
176
     1
 62
    18
420
        0
176
     1
 90
       50
176
     1
 90
        3
176
     1
 62
     5
420
      255
176
     1
290
     0
176
     1
 90
       50
176
     1
 90
       50
176
     1
 90
       50
176
     1
290
     0
176
     1
 90
       50
176
     1
 62
   256
176
     0
 40
1.0
176
     0
 90
        2
176
     1
  1
strokes_ogs.tif
176
     1
290
     0
176
     1
 40
1.0
176
     1
 40
1.0
176
     1
  0
VISUALSTYLE
  5
3D
102
{ACAD_REACTORS
330
29
102
}
330
29
100
AcDbVisualStyle
  2
Shaded with edges
 70
    26
177
     3
291
     0
 70
    58
 90
        2
176
     1
 90
        2
176
     1
 90
        1
176
     1
 90
        2
176
     1
 40
0.6
176
     1
 40
30.0
176
     1
 62
     7
420
 16777215
176
     1
 90
        1
176
     1
 90
       10
176
     1
 62
     7
176
     1
 62
   257
176
     1
 90
        2
176
     1
 90
        1
176
     1
 40
1.0
176
     1
 90
        8
176
     1
 62
   257
176
     1
 40
1.0
176
     1
 90
        1
176
     1
 90
        6
176
     1
 90
        2
176
     1
 62
     7
176
     1
 90
        3
176
     1
 90
        0
176
     1
 90
        0
176
     1
290
     0
176
     1
 90
        5
176
     1
 40
0.0
176
     1
 90
        0
176
     1
290
     0
176
     1
290
     1
176
     1
290
     1
176
     1
290
     0
176
     1
290
     0
176
     1
290
     0
176
     1
290
     0
176
     1
290
     0
176
     1
290
     0
176
     1
 90
       50
176
     1
 40
0.0
176
     1
 40
1.0
176
     1
 90
        0
176
     1
 62
    18
420
        0
176
     1
 90
       50
176
     1
 90
        3
176
     1
 62
     5
420
      255
176
     1
290
     0
176
     1
 90
       50
176
     1
 90
       50
176
     1
 90
       50
176
     1
290
     0
176
     1
 90
       50
176
     1
 62
   256
176
     0
 40
1.0
176
     0
 90
        2
176
     1
  1
strokes_ogs.tif
176
     1
290
     0
176
     1
 40
1.0
176
     1
 40
1.0
176
     1
  0
VISUALSTYLE
  5
3A
102
{ACAD_REACTORS
330
29
102
}
330
29
100
AcDbVisualStyle
  2
Shades of Gray
 70
    23
177
     3
291
     0
 70
    58
 90
        2
176
     1
 90
        2
176
     1
 90
        3
176
     1
 90
        0
176
     1
 40
0.6
176
     1
 40
30.0
176
     1
 62
     7
420
 16777215
176
     1
 90
        2
176
     1
 90
        2
176
     1
 62
     7
176
     1
 62
     7
176
     1
 90
        1
176
     1
 90
        1
176
     1
 40
40.0
176
     1
 90
        8
176
     1
 62
     7
176
     1
 40
1.0
176
     1
 90
        1
176
     1
 90
        6
176
     1
 90
        2
176
     1
 62
     7
176
     1
 90
        3
176
     1
 90
        0
176
     1
 90
        0
176
     1
290
     0
176
     1
 90
        1
176
     1
 40
0.0
176
     1
 90
        0
176
     1
290
     0
176
     1
290
     1
176
     1
290
     1
176
     1
290
     0
176
     1
290
     0
176
     1
290
     0
176
     1
290
     0
176
     1
290
     0
176
     1
290
     0
176
     1
 90
       50
176
     1
 40
0.0
176
     1
 40
1.0
176
     1
 90
        0
176
     1
 62
    18
420
        0
176
     1
 90
       50
176
     1
 90
        3
176
     1
 62
     5
420
      255
176
     1
290
     0
176
     1
 90
       50
176
     1
 90
       50
176
     1
 90
       50
176
     1
290
     0
176
     1
 90
       50
176
     1
 62
   256
176
     0
 40
1.0
176
     0
 90
        2
176
     1
  1
strokes_ogs.tif
176
     1
290
     0
176
     1
 40
1.0
176
     1
 40
1.0
176
     1
  0
VISUALSTYLE
  5
3B
102
{ACAD_REACTORS
330
29
102
}
330
29
100
AcDbVisualStyle
  2
Sketchy
 70
    24
177
     3
291
     0
 70
    58
 90
        1
176
     1
 90
        2
176
     1
 90
        2
176
     1
 90
        0
176
     1
 40
0.6
176
     1
 40
30.0
176
     1
 62
     7
420
 16777215
176
     1
 90
        2
176
     1
 90
        2
176
     1
 62
     7
176
     1
 62
     7
176
     1
 90
        1
176
     1
 90
        1
176
     1
 40
40.0
176
     1
 90
       11
176
     1
 62
     7
176
     1
 40
1.0
176
     1
 90
        1
176
     1
 90
        6
176
     1
 90
        2
176
     1
 62
     7
176
     1
 90
        6
176
     1
 90
        0
176
     1
 90
        0
176
     1
290
     0
176
     1
 90
        1
176
     1
 40
0.0
176
     1
 90
        0
176
     1
290
     0
176
     1
290
     1
176
     1
290
     1
176
     1
290
     0
176
     1
290
     0
176
     1
290
     0
176
     1
290
     0
176
     1
290
     0
176
     1
290
     0
176
     1
 90
       50
176
     1
 40
0.0
176
     1
 40
1.0
176
     1
 90
        0
176
     1
 62
    18
420
        0
176
     1
 90
       50
176
     1
 90
        3
176
     1
 62
     5
420
      255
176
     1
290
     0
176
     1
 90
       50
176
     1
 90
       50
176
     1
 90
       50
176
     1
290
     0
176
     1
 90
       50
176
     1
 62
   256
176
     0
 40
1.0
176
     0
 90
        2
176
     1
  1
strokes_ogs.tif
176
     1
290
     0
176
     1
 40
1.0
176
     1
 40
1.0
176
     1
  0
VISUALSTYLE
  5
36
102
{ACAD_REACTORS
330
29
102
}
330
29
100
AcDbVisualStyle
  2
Thicken
 70
    13
177
     3
291
     1
 70
    58
 90
        2
176
     1
 90
        2
176
     1
 90
        0
176
     1
 90
        0
176
     1
 40
0.6
176
     1
 40
30.0
176
     1
 62
     7
420
 16777215
176
     1
 90
        1
176
     1
 90
        4
176
     1
 62
     7
176
     1
 62
   257
176
     1
 90
        1
176
     1
 90
        1
176
     1
 40
1.0
176
     1
 90
       12
176
     1
 62
     7
176
     1
 40
1.0
176
     1
 90
        1
176
     1
 90
        6
176
     1
 90
        2
176
     1
 62
     7
176
     1
 90
        5
176
     1
 90
        0
176
     1
 90
        0
176
     1
290
     0
176
     1
 90
        1
176
     1
 40
0.0
176
     1
 90
        0
176
     1
290
     0
176
     1
290
     1
176
     1
290
     1
176
     1
290
     0
176
     1
290
     0
176
     1
290
     0
176
     1
290
     0
176
     1
290
     0
176
     1
290
     0
176
     1
 90
       50
176
     1
 40
0.0
176
     1
 40
1.0
176
     1
 90
        0
176
     1
 62
    18
420
        0
176
     1
 90
       50
176
     1
 90
        3
176
     1
 62
     5
420
      255
176
     1
290
     0
176
     1
 90
       50
176
     1
 90
       50
176
     1
 90
       50
176
     1
290
     0
176
     1
 90
       50
176
     1
 62
   256
176
     0
 40
1.0
176
     0
 90
        2
176
     1
  1
strokes_ogs.tif
176
     1
290
     0
176
     1
 40
1.0
176
     1
 40
1.0
176
     1
  0
VISUALSTYLE
  5
30
102
{ACAD_REACTORS
330
29
102
}
330
29
100
AcDbVisualStyle
  2
Wireframe
 70
     5
177
     3
291
     0
 70
    58
 90
        0
176
     1
 90
        2
176
     1
 90
        0
176
     1
 90
        0
176
     1
 40
0.6
176
     1
 40
30.0
176
     1
 62
     7
420
 16777215
176
     1
 90
        1
176
     1
 90
        4
176
     1
 62
     7
176
     1
 62
   257
176
     1
 90
        1
176
     1
 90
        1
176
     1
 40
1.0
176
     1
 90
        0
176
     1
 62
   257
176
     1
 40
1.0
176
     1
 90
        1
176
     1
 90
        6
176
     1
 90
        2
176
     1
 62
     7
176
     1
 90
        3
176
     1
 90
        0
176
     1
 90
        0
176
     1
290
     0
176
     1
 90
        1
176
     1
 40
0.0
176
     1
 90
        0
176
     1
290
     0
176
     1
290
     1
176
     1
290
     1
176
     1
290
     0
176
     1
290
     0
176
     1
290
     0
176
     1
290
     0
176
     1
290
     0
176
     1
290
     0
176
     1
 90
       50
176
     1
 40
0.0
176
     1
 40
1.0
176
     1
 90
        0
176
     1
 62
    18
420
        0
176
     1
 90
       50
176
     1
 90
        3
176
     1
 62
     5
420
      255
176
     1
290
     0
176
     1
 90
       50
176
     1
 90
       50
176
     1
 90
       50
176
     1
290
     0
176
     1
 90
       50
176
     1
 62
   256
176
     0
 40
1.0
176
     0
 90
        2
176
     1
  1
strokes_ogs.tif
176
     1
290
     0
176
     1
 40
1.0
176
     1
 40
1.0
176
     1
  0
VISUALSTYLE
  5
3C
102
{ACAD_REACTORS
330
29
102
}
330
29
100
AcDbVisualStyle
  2
X-Ray
 70
    25
177
     3
291
     0
 70
    58
 90
        2
176
     1
 90
        2
176
     1
 90
        1
176
     1
 90
        1
176
     1
 40
0.5
176
     1
 40
30.0
176
     1
 62
     7
420
 16777215
176
     1
 90
        1
176
     1
 90
        0
176
     1
 62
     7
176
     1
 62
   257
176
     1
 90
        1
176
     1
 90
        1
176
     1
 40
1.0
176
     1
 90
        8
176
     1
 62
     7
176
     1
 40
1.0
176
     1
 90
        1
176
     1
 90
        6
176
     1
 90
        2
176
     1
 62
     7
176
     1
 90
        3
176
     1
 90
        0
176
     1
 90
        0
176
     1
290
     0
176
     1
 90
       13
176
     1
 40
0.0
176
     1
 90
        0
176
     1
290
     0
176
     1
290
     1
176
     1
290
     1
176
     1
290
     0
176
     1
290
     0
176
     1
290
     0
176
     1
290
     0
176
     1
290
     0
176
     1
290
     0
176
     1
 90
       50
176
     1
 40
0.0
176
     1
 40
1.0
176
     1
 90
        0
176
     1
 62
    18
420
        0
176
     1
 90
       50
176
     1
 90
        3
176
     1
 62
     5
420
      255
176
     1
290
     0
176
     1
 90
       50
176
     1
 90
       50
176
     1
 90
       50
176
     1
290
     0
176
     1
 90
       50
176
     1
 62
   256
176
     0
 40
1.0
176
     0
 90
        2
176
     1
  1
strokes_ogs.tif
176
     1
290
     0
176
     1
 40
1.0
176
     1
 40
1.0
176
     1
  0
DICTIONARYVAR
  5
23D
102
{ACAD_REACTORS
330
238
102
}
330
238
100
DictionaryVariables
280
     0
  1
1:1
  0
DICTIONARYVAR
  5
23A
102
{ACAD_REACTORS
330
238
102
}
330
238
100
DictionaryVariables
280
     0
  1
STANDARD
  0
DICTIONARYVAR
  5
239
102
{ACAD_REACTORS
330
238
102
}
330
238
100
DictionaryVariables
280
     0
  1
STANDARD
  0
DICTIONARYVAR
  5
23B
102
{ACAD_REACTORS
330
238
102
}
330
238
100
DictionaryVariables
280
     0
  1
Imperial24
  0
DICTIONARYVAR
  5
23C
102
{ACAD_REACTORS
330
238
102
}
330
238
100
DictionaryVariables
280
     0
  1
Imperial24
  0
DICTIONARY
  5
1A
330
19
100
AcDbDictionary
280
     1
281
     1
  3
BUMPTILE
360
1C
  3
DIFFUSETILE
360
1B
  3
OPACITYTILE
360
1F
  3
REFLECTIONTILE
360
1E
  3
REFRACTIONTILE
360
20
  3
SPECULARTILE
360
1D
  0
DICTIONARY
  5
12
330
11
100
AcDbDictionary
280
     1
281
     1
  3
BUMPTILE
360
14
  3
DIFFUSETILE
360
13
  3
OPACITYTILE
360
17
  3
REFLECTIONTILE
360
16
  3
REFRACTIONTILE
360
18
  3
SPECULARTILE
360
15
  0
DICTIONARY
  5
22
330
21
100
AcDbDictionary
280
     1
281
     1
  3
BUMPTILE
360
24
  3
DIFFUSETILE
360
23
  3
OPACITYTILE
360
27
  3
REFLECTIONTILE
360
26
  3
REFRACTIONTILE
360
28
  3
SPECULARTILE
360
25
  0
DICTIONARY
  5
23E
330
65
100
AcDbDictionary
280
     1
281
     1
  3
ACAD_ROUNDTRIP_2008_TABLESTYLE_CELLSTYLEMAP
360
23F
  0
XRECORD
  5
1C
102
{ACAD_REACTORS
330
1A
102
}
330
1A
100
AcDbXrecord
280
     1
270
     1
271
     1
  0
XRECORD
  5
1B
102
{ACAD_REACTORS
330
1A
102
}
330
1A
100
AcDbXrecord
280
     1
270
     1
271
     1
  0
XRECORD
  5
1F
102
{ACAD_REACTORS
330
1A
102
}
330
1A
100
AcDbXrecord
280
     1
270
     1
271
     1
  0
XRECORD
  5
1E
102
{ACAD_REACTORS
330
1A
102
}
330
1A
100
AcDbXrecord
280
     1
270
     1
271
     1
  0
XRECORD
  5
20
102
{ACAD_REACTORS
330
1A
102
}
330
1A
100
AcDbXrecord
280
     1
270
     1
271
     1
  0
XRECORD
  5
1D
102
{ACAD_REACTORS
330
1A
102
}
330
1A
100
AcDbXrecord
280
     1
270
     1
271
     1
  0
XRECORD
  5
14
102
{ACAD_REACTORS
330
12
102
}
330
12
100
AcDbXrecord
280
     1
270
     1
271
     1
  0
XRECORD
  5
13
102
{ACAD_REACTORS
330
12
102
}
330
12
100
AcDbXrecord
280
     1
270
     1
271
     1
  0
XRECORD
  5
17
102
{ACAD_REACTORS
330
12
102
}
330
12
100
AcDbXrecord
280
     1
270
     1
271
     1
  0
XRECORD
  5
16
102
{ACAD_REACTORS
330
12
102
}
330
12
100
AcDbXrecord
280
     1
270
     1
271
     1
  0
XRECORD
  5
18
102
{ACAD_REACTORS
330
12
102
}
330
12
100
AcDbXrecord
280
     1
270
     1
271
     1
  0
XRECORD
  5
15
102
{ACAD_REACTORS
330
12
102
}
330
12
100
AcDbXrecord
280
     1
270
     1
271
     1
  0
XRECORD
  5
24
102
{ACAD_REACTORS
330
22
102
}
330
22
100
AcDbXrecord
280
     1
270
     1
271
     1
  0
XRECORD
  5
23
102
{ACAD_REACTORS
330
22
102
}
330
22
100
AcDbXrecord
280
     1
270
     1
271
     1
  0
XRECORD
  5
27
102
{ACAD_REACTORS
330
22
102
}
330
22
100
AcDbXrecord
280
     1
270
     1
271
     1
  0
XRECORD
  5
26
102
{ACAD_REACTORS
330
22
102
}
330
22
100
AcDbXrecord
280
     1
270
     1
271
     1
  0
XRECORD
  5
28
102
{ACAD_REACTORS
330
22
102
}
330
22
100
AcDbXrecord
280
     1
270
     1
271
     1
  0
XRECORD
  5
25
102
{ACAD_REACTORS
330
22
102
}
330
22
100
AcDbXrecord
280
     1
270
     1
271
     1
  0
CELLSTYLEMAP
  5
23F
102
{ACAD_REACTORS
330
23E
102
}
330
23E
100
AcDbCellStyleMap
 90
        3
300
CELLSTYLE
  1
TABLEFORMAT_BEGIN
 90
        5
170
     1
 91
        0
 92
    32768
 62
   257
 93
        1
300
CONTENTFORMAT
  1
CONTENTFORMAT_BEGIN
 90
        0
 91
        0
 92
      512
 93
        0
300

 40
0.0
140
1.0
 94
        5
 62
     0
340
55
144
0.25
309
CONTENTFORMAT_END
171
     0
 94
        0
309
TABLEFORMAT_END
  1
CELLSTYLE_BEGIN
 90
        1
 91
        1
300
_TITLE
309
CELLSTYLE_END
300
CELLSTYLE
  1
TABLEFORMAT_BEGIN
 90
        5
170
     1
 91
        0
 92
        0
 62
   257
 93
        1
300
CONTENTFORMAT
  1
CONTENTFORMAT_BEGIN
 90
        0
 91
        0
 92
      512
 93
        0
300

 40
0.0
140
1.0
 94
        5
 62
     0
340
55
144
0.18
309
CONTENTFORMAT_END
171
     0
 94
        0
309
TABLEFORMAT_END
  1
CELLSTYLE_BEGIN
 90
        2
 91
        1
300
_HEADER
309
CELLSTYLE_END
300
CELLSTYLE
  1
TABLEFORMAT_BEGIN
 90
        5
170
     1
 91
        0
 92
        0
 62
   257
 93
        1
300
CONTENTFORMAT
  1
CONTENTFORMAT_BEGIN
 90
        0
 91
        0
 92
      512
 93
        0
300

 40
0.0
140
1.0
 94
        2
 62
     0
340
55
144
0.18
309
CONTENTFORMAT_END
171
     0
 94
        0
309
TABLEFORMAT_END
  1
CELLSTYLE_BEGIN
 90
        3
 91
        2
300
_DATA
309
CELLSTYLE_END
  0
ENDSEC
  0
EOF
